Live - Operation Spirit Chords & Tabs

 

Operation Spirit Chords & Tabs

Live Chords & Tabs

Version: 2 Type: Tab 0 ratings
1 star 2 stars 3 stars 4 stars 5 stars
comments

Operation Spirit Tab

   
#----------------------------------PLEASE NOTE---------------------------------#
#This file is the author's own work and represents their interpretation of the #
#song. You may only use this file for private study, scholarship, or research. #
#------------------------------------------------------------------------------##
                            "Operation Spirit"
                       !!!!!1/2 step downtuned!!!!!

Structure: Intro
           Verse
           Chorus
           Bridge
           Verse
           Chorus
           Chorus
           Interlude
           Chorus
           Chorus
           Extro

                 _____________________________
                <<<<<<<<<<<--Intro-->>>>>>>>>>>
                 ~~~~~~~~~~~~~~~~~~~~~~~~~~~~~

Play the following 4 times:

G----------------------------------|---------------------------------|
u----------------------------------|---------------------------------|
i--All-'dis-is-palm-muted!!!-------|---------------------------------|
t----------------------------------|---------------------------------|
a--5h7-7-7-7-7-7-7-5h7-7-7-7-7-7-7-|-5h7-7-7-7-7-7-7-5-5-5-5-5-5-5-5-|
r----------------------------------|---------------------------------|
   |       |       |       |         |       |       |       |
B----------------------------------|---------------------------------|
a----------------------------------|---------------------------------|
s--5h7-7-7-----7---5h7-7-7-----7---|-5h7-7-7-----7---5---5-5-----5-5-|
s----------------------------------|---------------------------------|
                                           ^
                                           |
Fourth time through stop and hold this note^


                 _____________________________
                <<<<<<<<<<<--Verse-->>>>>>>>>>>
                 ~~~~~~~~~~~~~~~~~~~~~~~~~~~~~

Play the following 8 times:

G--7===============================|==========---5-5-5---5-5-5---5-5-|
u--8===============================|==========---7-7-7---7-7-7---7-7-|
i--9===============================|==========---7-7-7---7-7-7---7-7-|
t--9===============================|==========---7-7-7---7-7-7---7-7-|
a--7===============================|==========---5-5-5---5-5-5---5-5-|
r----------------------------------|---------------------------------|
   |       |       |       |         |       |       |       |
B----------------------------------|---------------------7-------7---|
a----------------------------------|---------------------------------|
s--5/7-7-7-7---5-5-5/7-7-7-7---5-5-|-5/7-7-7-7---5-5-5-------5-------|
s----------------------------------|---------------------------------|

Last time replace last measure with:
                                  G--5-------------------------------|
                                  u--5-------------------------------|
                                  i--6---do-some-cool-strums---------|
                                  t--7-------------------------------|
                                  a--7-------------------------------|
                                  r--5-------------------------------|
                                     |       |       |       |
                                  B----------------------------------|
                                  a----------------------------------|
                                  s----------------------------------|
                                  s--5---5---5---5---5---5---5/12\---|


                 ______________________________
                <<<<<<<<<<<--Chorus-->>>>>>>>>>>
                 ~~~~~~~~~~~~~~~~~~~~~~~~~~~~~~

Play the following 3 times:
[ Tab from: http://www.guitartabs.cc/tabs/l/live/operation_spirit_tab_ver_2.html ]
G--7----------------7---7----------|-7----------------7---7----------|
u--8---------------10---8----------|-7----------------7---7----------|
i--9---strumming----9---9----------|-7--strumming-----9---7----------|
t--9----------------9---9----------|-9----------------9---9----------|
a--7----------------7---7----------|-9----------------9---9----------|
r----------------------------------|-7----------------7---7----------|
   |       |       |       |         |       |       |       |
B----------------------------------|---------4-------4-----4---------|
a----------------------------------|---------------------------------|
s------------------------------2===|=====2---------2-----2---2-------|
s--0-------0-------0---3-----------|-----------------------------3---|
                                                             ^   ^
                       (omit these notes third time)---------^---^

then go

R: A                                 C              D
   |       |       |       |         |       |       |       |
B----------------------------------|---------------------------------|
a----------------------------------|---------------------------------|
s--0---0---0---0---0---0---0---0---|-3---3---3---3---5---5---5---5---|
s----------------------------------|---------------------------------|

                 ______________________________
                <<<<<<<<<<<--Bridge-->>>>>>>>>>>
                 ~~~~~~~~~~~~~~~~~~~~~~~~~~~~~~

Play this once:

G--7-7-7-7-7-------7-7-7-7-7-------|-7-7-7-7-7---5-5-5-5-5-5-5-5-5-5-|
u--8-8-8-8-8-------8-8-8-8-8-------|-8-8-8-8-8---7-7-7-7-7-7-7-7-7-7-|
i--9-9-9-9-9-------9-9-9-9-9-------|-9-9-9-9-9---7-7-7-7-7-7-7-7-7-7-|
t--9-9-9-9-9-------9-9-9-9-9-------|-9-9-9-9-9---7-7-7-7-7-7-7-7-7-7-|
a--7-7-7-7-7-------7-7-7-7-7-------|-7-7-7-7-7---5-5-5-5-5-5-5-7-5-5-|
r----------------------------------|---------------------------------|
   |       |       |       |         |       |       |       |
B----------------------------------|---------------------7-------7---|
a----------------------------------|---------------------------------|
s--5/7-7-7-7---5-5-5/7-7-7-7---5-5-|-5/7-7-7-7---5-5-5-------5-------|
s----------------------------------|---------------------------------|

G--7-7-7-7-7-------7-7-7-7-7-------|-7-7-7-7-7-------7---------------|
u--8-8-8-8-8-------8-8-8-8-8-------|-8-8-8-8-8-------8---------------|
i--9-9-9-9-9-------9-9-9-9-9-------|-9-9-9-9-9-------9---------------|
t--9-9-9-9-9-------9-9-9-9-9-------|-9-9-9-9-9-------9---------------|
a--7-7-7-7-7-------7-7-7-7-7-------|-7-7-7-7-7-------7---------------|
r----------------------------------|---------------------------------|
   |       |       |       |         |       |       |       |
B----------------------------------|---------------------------------|
a----------------------------------|---------------------------------|
s--5/7-7-7-7---5-5-5/7-7-7-7---5-5-|-7-7-7-7-7-------7---------------|
s----------------------------------|-------------------------7\------|


                 _________________________________
                <<<<<<<<<<<--Interlude-->>>>>>>>>>>
                 ~~~~~~~~~~~~~~~~~~~~~~~~~~~~~~~~~

Bass plays intro riff 9 times. Guitar gets feedback.

                 _____________________________
                <<<<<<<<<<<--Extro-->>>>>>>>>>>
                 ~~~~~~~~~~~~~~~~~~~~~~~~~~~~~

G--7-7-7-7-|
u--8-8-8-8-|
i--9-9-9-9-|
t--9-9-9-9-|
a--7-7-7-7-|
r----------|
   |
B----------|
a----------|
s--7-7-7-7-|
s----------|


                        Transcribed by Michael Gunter

Questions, comments, TAB requests, marriage proposals, death threats,
priase, or hate mail? Contact me at:
                                        
Comments