Live - Operation Spirit Chords & Tabs

 

Operation Spirit Chords & Tabs

Live Chords & Tabs

Version: 2 Type: Bass Tab 0 ratings
1 star 2 stars 3 stars 4 stars 5 stars
comments

Operation Spirit Bass Tab

Song: Operation Spirit
Artist: Live
Album: Mental Jewelry
Tabbed by: Michael Gunter, courtesy of Julia Brault "The Unofficial Chad 
Taylor Fan Site- 		www.come.to/chadtaylor"
Reorganized by: L.A.

		Tune Down 1/2 step
Intro (x4)
G|----------------------------------|---------------------------------|
D|----------------------------------|---------------------------------|
A|--5h7-7-7-----7---5h7-7-7-----7---|-5h7-7-7-----7---5---5-5-----5-5-|
E|----------------------------------|---------------------------------|
							  ^Stop here & hold 4th time thru
Verse (x8)
G|----------------------------------|---------------------7-------7---|
D|----------------------------------|---------------------------------|
A|--5/7-7-7-7---5-5-5/7-7-7-7---5-5-|-5/7-7-7-7---5-5-5-------5-------|
E|----------------------------------|---------------------------------|
					      G|--------------------------------|
          Last time thru            D|--------------------------------|
          play this measure for     A|--------------------------------|
          the 2nd measure           E|-5---5---5---5---5---5---5/12\--|
[ Tab from: http://www.guitartabs.cc/tabs/l/live/operation_spirit_btab_ver_2.html ]
Chorus
G|----------------------------------|---------4-------4-----4---------|
D|----------------------------------|---------------------------------|
A|------------------------------2---|-----2---------2-----2---2-------|
E|--0-------0-------0---3-----------|-----------------------------3---|

then:
G|----------------------------------|---------------------------------|
D|----------------------------------|---------------------------------|
A|--0---0---0---0---0---0---0---0---|-3---3---3---3---5---5---5---5---|
E|----------------------------------|---------------------------------|

Bridge
G|----------------------------------|---------------------7-------7---|
D|----------------------------------|---------------------------------|
A|--5/7-7-7-7---5-5-5/7-7-7-7---5-5-|-5/7-7-7-7---5-5-5-------5-------|
E|----------------------------------|---------------------------------|

G|----------------------------------|---------------------------------|
D|----------------------------------|---------------------------------|
A|--5/7-7-7-7---5-5-5/7-7-7-7---5-5-|-7-7-7-7-7-------7---------------|
E|----------------------------------|-------------------------7\------|

Interlude, play intro 9 times

Outro
G|----------|
D|----------|
A|--7-7-7-7-|
E|----------|
Comments