Live - Lightning Crashes Chords & Tabs

 

Lightning Crashes Chords & Tabs

Live Chords & Tabs

Version: 2 Type: Tab 1 rating
1 star 2 stars 3 stars 4 stars 5 stars
comments

Lightning Crashes Tab

Song: Lightning Crashes
Band: Live
From: Throwing Copper
Tab:  Adam Urbanczyk
Mail: pickboy87@cs.com
Tune: Standard

I don\'t know how many tabs there are of this but mine\'s really
accurate. I picked up when I was playing Eve 6\'s Inside Out chords.
[ Tab from: http://www.guitartabs.cc/tabs/l/live/lightning_crashes_tab_ver_2.html ]
  Intro & Verses: (With flange and chorus)
E|--2----2----------2----2------------0----0----------0----0---|
B|--2----2----------2----2------------0----0----------0----0---|
G|--4----4----------3----3------------1----1----------1----1---|
D|--4----4----------4----4------------2----2----------2----2---|
A|--2----2----------4----4------------2----2----------2----2---|
E|------------------2----2-------------------------------------|

  Chorus:
E|--0-0---2-2---2-2--2-2---|
B|--0-0---2-2---2-2--2-2---|
G|--1-1---4-4---3-3--3-3---|
D|--2-2---4-4---4-4--4-4---|
A|--2-2---2-2---4-4--4-4---|
E|--------------2-2--2-2---|
Comments