Live - Lakinis Juice Chords & Tabs

 

Lakinis Juice Chords & Tabs

Live Chords & Tabs

Version: 3 Type: Tab

Lakinis Juice Tab

   
Lakini's Juice
Live
"dropped D" tuning
verse
   D5 F#5       D5 F#5      D5 F#5      D5 F#5D5 D5(2)
e:-------x--x---------x--x--------x--x-------------|
b:-------x--x---------x--x--------x--x-------------|
g:-----------------------------------------------7-|
d:-0--4---------0--4--------0--4--------0--4--0--7-|
A:-0--4---------0--4--------0--4--------0--4--0--5-|
D:-0--4---------0--4--------0--4--------0--4--0----|
prechorus
   A     A#    C     A#
e:------------------------|
b:------------------------|
g:----6-----7-----9-----7-|
d:---7-----8-----10----8--|
A:--7-----8-----10----8---|
D:-7-----8-----10----8----|
chorus (the bass plays the high to low part, may be
        wrong chords all together)
   D5       D5 D#5
e:------------------------|
b:------------------------|
g:-7--7--7----------------|
d:-7--7--7--0--1--1--1--1-|
A:-5--5--5--0--1--1--1--1-|
D:----------0--1--1--1--1-|
interlude/chorus
   D           D#
e:-------2-----------3----|
b:----3-----------4-----4-|
g:-2--------2--3----------|
d:------------------------|
A:------------------------|
D:------------------------|
[ Tab from: http://www.guitartabs.cc/tabs/l/live/lakinis_juice_tab_ver_3.html ]