Live - Lakinis Juice Chords & Tabs

 

Lakinis Juice Chords & Tabs

Live Chords & Tabs

Version: 2 Type: Bass Tab 0 ratings
1 star 2 stars 3 stars 4 stars 5 stars
comments

Lakinis Juice Bass Tab

Lakini's Juice by Live   Bass Tab
>From Album, Secret Samadhi
Transcribed by R. Allen Canterbury

Note with ' above it means to bend the string 1/2 step
                   / means to slide up from previous note
                   \ means to slide down from previous note


Tuned down 1/2 step, Tune Eb down one step to Db

Guitar/Vocal Intro...No Bass.
Gb:-----------------------------------------|
Db:--------|=====================|----------|
Ab:--------|=====================|----------|
Db:-----------------------------------------|


  Bass In.  *With Heavy Distortion Througout                 (x4)
Gb:-------------------------------------------------------------|-----|
Db:*-----------------------------------------------------------*|-----|
Ab:*---------------------------------------------------------,-*|-----|
Db:---0--4--4-4-4\0--0--4--4-4-4\0--0--4--4-4-4\0--0--4--0--7---|--0--|
                           more wine..

                                                  1.         2.
                                                 |~~~~~~~~~~|~~~~~~~~~~~~~~~|
Gb:---------------------------------------------------------|---------------|
Db:*-------------------------------------------------------*|---------------|
Ab:*-------------------------------------------------------*|---------------|
Db:--4-4------4-4-5-----5-5-5---4-4------4-4-5----5-5-5-5---|-5-5-5-5-5-5-5-|


                                                        (x8)
Gb:-------------------------------------------------------------|-----|
Db:*-----------------------------------------------------------*|-----|
Ab:*---------------------------------------------------------,-*|-----|
Db:---0--4--4-4-4\0--0--4--4-4-4\0--0--4--4-4-4\0--0--4--0--7---|--0--|

[ Tab from: http://www.guitartabs.cc/tabs/l/live/lakinis_juice_btab_ver_2.html ]
                                                   1.        2.
                                                  |~~~~~~~~~|~~~~~~~~~~~~~~~|
Gb:---------------------------------------------------------|---------------|
Db:*-------------------------------------------------------*|---------------|
Ab:*------------------------------------------------,---,--*|---------------|
Db:--4-4------4-4-5------5-5-5---4-4------4-4-5----5-5-5-5--|-5-5-5-5-5-5-5-|


                                                 (x4)
Gb:-------------------------------------------------|
Db:*-----------------------------------------------*|
Ab:*-----------------------------------------------*|
Db:---0---0--8--8-8-8-8-8/--0---0--5--5-5-5-5-5/----|
 ride....                     let me ride...
 

                                                           (x6)
Gb:-------------------------------------------------------------|-----|
Db:*-----------------------------------------------------------*|-----|
Ab:*---------------------------------------------------------,-*|-----|
Db:---0--4--4-4-4\0--0--4--4-4-4\0--0--4--4-4-4\0--0--4--0--7---|--0--|
                        It was an evening i shared with the sun...


                                                   1.        2.
                                                  |~~~~~~~~~|~~~~~~~~~~~~~~~|
Gb:---------------------------------------------------------|---------------|
Db:*-------------------------------------------------------*|---------------|
Ab:*------------------------------------------------,---,--*|---------------|
Db:--4-4------4-4-5------5-5-5---4-4------4-4-5----5-5-5-5--|-5-5-5-5-5-5-5-|


                                               (x12)   (let ring & fade)
Gb:------------------------------------------------|---------------------|
Db:*----------------------------------------------*|---------------------|
Ab:*----------------------------------------------*|---------------------|
Db:---0---0--8--8-8-8-8-8/-0---0--5--5-5-5-5-5/----|--0------------------|
      ride....                       let me ride...
      
_________________
"Any similarities between this transcription and the actual song are purely
coincidental."
/----------------------------------------\ 
|  ____    ____                          |
| (    `--'  .-'               _T_T_T_T_ |
| |8| O  O  |||||||||||||||||||[o o o o/ | 
| (__,--.____\                 `~~~`--'  |
|     from the desk of jaco pastorius..  |
|            acanterb@vt.edu             |
|  http://www.vt.edu:10021/A/acanterb/   |
\----------------------------------------/


Comments