Live - I Alone Chords & Tabs

 

I Alone Chords & Tabs

Live Chords & Tabs

Version: 3 Type: Bass Tab 0 ratings
1 star 2 stars 3 stars 4 stars 5 stars
comments

I Alone Bass Tab

Song: "I Alone"
Artist: Live
Album: Throwing Copper
Tabbed By: L.A.

The vast majority of Live's songs are tuned down 1/2 step. I wrote this tab 
accordingly, but there's some funky stuff up with some of the notes that 
don't sound exactly right like this. Oh well, see for yourself.

VERSE  ***Dalheimer uses lots and lots of filler at the end of this riff, 
which would take a long time to figure out and tab. Here's a common one:
Gb|--------|    |-----------------------------|
Db|---0----|    |---0---------------------0---|
Ab|-----3--|    |-----3==0h3-0h3--3/5-------3-|
Eb|-4------|    |-4---------------------4-----|
[ Tab from: http://www.guitartabs.cc/tabs/l/live/i_alone_btab_ver_3.html ]
LEAD UP to CHORUS "and leave you there by yourself..."
Gb|---------------------|
Db|---------------------|
Ab|--/14--14--14--14-10-|
Eb|---------------------|

CHORUS (x3)     then:
Gb|-------------|---------------------------------------|
Db|-------------|---------------------------------------|
Ab|-------------|---------------------------------------|
Eb|-1-1-1/8-4-4-|-4/6-66-6/8-88-8/10-10-10-10/11-11-11--|

BRIDGE (this is the part that sounds a little funky w/ this tuning)
Gb|------------------------------------------|
Db|------------------------------------------|
Ab|------------------------------------------|
Eb|-8h10-10-10-10--8h10-10-10--8h10h11p10-8--|

Questions, comments, advice, etc? L_A_H@hotmail.com
Comments