Live - Heropsychodreamer Chords & Tabs

 

Heropsychodreamer Chords & Tabs

Live Chords & Tabs

Version: 2 Type: Tab 0 ratings
1 star 2 stars 3 stars 4 stars 5 stars
comments

Heropsychodreamer Tab

   
#----------------------------------PLEASE NOTE---------------------------------#
#This file is the author's own work and represents their interpretation of the #
#song. You may only use this file for private study, scholarship, or research. #
#------------------------------------------------------------------------------#
#


From Lipinski@muhs.edu Sun Mar  9 21:26:48 1997
Date: Sun, 09 Mar 1997 12:48:35 -0500
From: Rob Lipinski 
To: guitar@olga.net
Subject: TAB Heropsychodreamer by Live

Heropsychodreamer
Live
Secret Samadhi
Transcribed by Rob Lipinski

Intro/Chorus
[ Tab from: http://www.guitartabs.cc/tabs/l/live/heropsychodreamer_tab_ver_2.html ]
     Dm    A       F       E     Dm    A       F      E
-----5-----5-----1-----0-----5-----5-----1-----0-----|
-----6-----5-----1-----0-----6-----5-----1-----0-----|
-----7-----6-----2-----1-----7-----6-----2-----1-----|
-----7-----7-----3-----2-----7-----7-----3-----2-----|
-----5-----7-----3-----2-----5-----7-----3-----2-----|
-----X-----5-----1-----0-----X-----5-----1-----0-----|

I'm not sure about the verse

after the last chorus, it goes...

    Dm    Bm   Dm   D#m  Dm   Bm   Dm  D#m
-----5-----1-----5-----6-----5-----1-----5-----6-------|
-----6-----2-----6-----7-----6-----2-----6-----7-------|
-----7-----3-----7-----8-----7-----3-----7-----8-------|
-----7-----3-----7-----8-----7-----3-----7-----8-------|
-----5-----1-----5-----5-----5-----1-----5-----6-------|
-------------------------------------------------------|

I read in a magazine that this album was bad.  It said the lyrics were poor,
and the guitar was too predictable.  Well, I think that's CRAP.

Anyway I'm not totally sure if this is accurate, but it's such a good song,
somebody had to try it.
Comments