Live - Heropsychodreamer Chords & Tabs

 

Heropsychodreamer Chords & Tabs

Live Chords & Tabs

Version: 1 Type: Bass Tab 0 ratings
1 star 2 stars 3 stars 4 stars 5 stars
comments

Heropsychodreamer Bass Tab

Archivist- I saw a bass tab for this song already on the OLGA,
however, this one is different and more accurate.  I did not
use the existing tab as a source for mine.
"Heropsychodreamer" Bass Tab
by Live- Track 9 on Secret Samadhi
music by Live
lyrics by Edward Kowalczyk
transcribed by Eric Minikel

Tuned down one half step
[ Tab from: http://www.guitartabs.cc/tabs/l/live/heropsychodreamer_btab.html ]
INTRO/CHORUS:
G---------------------------------------------------
D---------------------------------------------------
A-5-5-3-5-5-5---------------------------------------
E-------------5-5-3-5-5-5-1-1-0-1-1-1-0-0-0-0-0-0-0-

VERSE:
G----------------------------------------------------
D----------------------------------------------------
A---------------------------------------5-5-8-5-5-5-8
E-5-5-8-5-5-5-0-0-3-0-0-0-3-5-5-8-5-5-5--------------

Comments