Live - Heaven Chords & Tabs

 

Heaven Chords & Tabs

Live Chords & Tabs

Version: 1 Type: Bass Tab

Heaven Bass Tab

   
Live - Heaven
Birds of Pray, Awake-Greatest Hits
Tabbed by JMack
Tuning:
Gb
Db
Ab
Eb

Intro with voice and guitar, then...
G|---------------------|
D|---------------------| 2x
A|-------6-------------|
E|----8-----6---4------|

  Pre-Chorus, listen to get the correct rhythm.
G|------------------------------|
D|------------------------------|
A|------------------------------|
E|--1-1--3-4~-4-3-1~-1-1-3-4~---|

  Chorus
G|--------------------------------|
D|--------------------------------|
A|--6~-6~-6-8---------------------|
E|------------6~-6~--8~-8~--4~-4~-|

  Back to Intro (Verse)
G|---------------------|
D|---------------------| 4x
A|-------6-------------|
E|----8-----6---4------|

 Pre-Chorus again
G|------------------------------|
D|------------------------------|
A|------------------------------|
E|--1-1--3-4~-4-3-1~-1-1-3-4~---|
[ Tab from: http://www.guitartabs.cc/tabs/l/live/heaven_btab.html ]
  Chorus Again
G|--------------------------------|
D|--------------------------------|
A|--6~-6~-6-8---------------------|
E|------------6~-6~--8~-8~--4~-4~-|

Then solo
G|------8-------|
D|----8---------| 4x
A|--6-----------|
E|------4~--8~--|

Intro again 1 time
G|--------------------|
D|--------------------|
A|-------6------------|
E|----8-----6---4-----|

 Pre-Chorus
G|------------------------------|
D|------------------------------|
A|------------------------------|
E|--1-1--3-4~-4-3-1~-1-1-3-4~---|

 Interlude (you come when "...and i believe")
G|------5-6-8~--10-8---------------------------------6-8--15----|
D|--6-8--------------8-10-8~-10/-13~--10~--8--6--6-8------15----|
A|--------------------------------------------------------------|
E|--------------------------------------------------------------|
   Chorus until end...Fading...Fading...
G|--------------------------------|
D|--------------------------------|
A|--6~-6~-6-8---------------------|
E|------------6~-6~--8~-8~--4~-4~-|