Live - Flow Chords & Tabs

 

Flow Chords & Tabs

Live Chords & Tabs

Version: 1 Type: Tab 0 ratings
1 star 2 stars 3 stars 4 stars 5 stars
comments

Flow Tab

   
Live - Flow

intro (clean)
//: G D Am C ://

Interlude (dist..)
[ Tab from: http://www.guitartabs.cc/tabs/l/live/flow_tab.html ]
|------------------------------|
|------------------------------|
|------------------------------| ://
|------------------------------|
|-----------0-2----------------|
|-0-0-3-0-3-----0-0-3-0-5-5----|

|------------------------------|
|------------------------------|
|------------------------------|
|------------------------------| ://
|-----------0-2---5--3-2-0-----|
|-0-0-3-0-3--------------------|

Chorus:

//: G D Am C ://
Comments