Live - Flow Chords & Tabs

 

Flow Chords & Tabs

Live Chords & Tabs

Version: 1 Type: Bass Tab

Flow Bass Tab

   
BAND:	LIVE
Album:	V
Song:	Flow
Tabbed by JMack
Tunig : Eb Ab Db Gb
0:31
G----------------------------------------------------|
D----------------------------------------------------|
A-----------------------------------------5-3-2-0----|
E-0-0-3-0-3-5---0-0-3-0-5-5---0--3-0-3-5-------------|

G----------------------------------------------------|
D----------------------------------------------------|
A-----------------------------------------5-3-2-0----|
E-0-0-3-0-3-5---0-0-3-0-5-5---0--3-0-3-5-------------|

0:44

G----------------------------------------------------|
D----------------------------------------------------|
A----------------------------------------5-3-2-0-----|
E-0--3-0-3-5---0--3-0-3-5---0--3-0-3-5---------------|

G----------------------------------------------------|
D----------------------------------------------------|
A----------------------------------------5-3-2-0-----|
E-0--3-0-3-5---0--3-0-3-5---0--3-0-3-5---------------|

0:56

G----------------------------------------------------|
D----------------------------------------------------|
A-------------5-5-555555--------------3-3-3333333----|
E-3-3-333333--------------5-5-555555-----------------|

G----------------------------------------------------|
D----------------------------------------------------|
A-------------5-5-555555--------------3-3-3333333----|
E-3-3-333333--------------5-5-555555-----------------|

G----------------------------------------------------|
D----------------------------------------------------|
A-------------5-5-555555--------------3-3-3333333----|
E-3-3-333333--------------5-5-555555-----------------|

G----------------------------------------------------|
D----------------------------------------------------|
A-------------5-5-555555--------------3-3-3333333----|
E-3-3-333333--------------5-5-555555-----------------|

G----------------------------------------------------|
D----------------------------------------------------|
A-3-3-333333-----------------------------------------|
E----------------------------------------------------|

1:23

G----------------------------------------------------|
D----------------------------------------------------|
A----------------------------------------5-3-2-0-----|
E-0--3-0-3-5---0--3-0-3-5---0--3-0-3-5---------------|

G----------------------------------------------------|
D----------------------------------------------------|
A----------------------------------------5-3-2-0-----|
E-0--3-0-3-5---0--3-0-3-5---0--3-0-3-5---------------|

G----------------------------------------------------|
D----------------------------------------------------|
A----------------------------------------5-3-2-0-----|
E-0--3-0-3-5---0--3-0-3-5---0--3-0-3-5---------------|

1:42

G----------------------------------------------------|
D----------------------------------------------------|
A-------------5-5-555555--------------3-3-3333333----|
E-3-3-333333--------------5-5-555555-----------------|
[ Tab from: http://www.guitartabs.cc/tabs/l/live/flow_btab.html ]
G----------------------------------------------------|
D----------------------------------------------------|
A-------------5-5-555555--------------3-3-3333333----|
E-3-3-333333--------------5-5-555555-----------------|

G----------------------------------------------------|
D----------------------------------------------------|
A-------------5-5-555555--------------3-3-3333333----|
E-3-3-333333--------------5-5-555555-----------------|

G----------------------------------------------------|
D----------------------------------------------------|
A-------------5-5-555555--------------3-3-3333333----|
E-3-3-333333--------------5-5-555555-----------------|

G----------------------------------------------------|
D----------------------------------------------------|
A-3-3-333333--3-3-333333--3-3-333333-----------------|
E----------------------------------------------------|

2:12

G----------------------------------------------------|
D----------------------------------------------------|
A----------------------------------------5-3-2-0-----|
E-0--3-0-3-5---0--3-0-3-5---0--3-0-3-5---------------|

G----------------------------------------------------|
D----------------------------------------------------|
A----------------------------------------5-3-2-0-----|
E-0--3-0-3-5---0--3-0-3-5---0--3-0-3-5---------------|

2:24

G----------------------------------------------------|
D----------------------------------------------------|
A-------------5-5-555555--------------3-3-3333333----|
E-3-3-333333--------------5-5-555555-----------------|

G----------------------------------------------------|
D----------------------------------------------------|
A-------------5-5-555555--------------3-3-3333333----|
E-3-3-333333--------------5-5-555555-----------------|

G----------------------------------------------------|
D----------------------------------------------------|
A-------------5-5-555555--------------3-3-3333333----|
E-3-3-333333--------------5-5-555555-----------------|

G----------------------------------------------------|
D----------------------------------------------------|
A-------------5-5-555555--------------3-3-3333333----|
E-3-3-333333--------------5-5-555555-----------------|

G----------------------------------------------------|
D----------------------------------------------------|
A-3-3-333333-----------------------------------------|
E----------------------------------------------------|

2:51

G----------------------------------------------------|
D----------------------------------------------------|
A----------------------------------------5-3-2-0-----|
E-0--3-0-3-5---0--3-0-3-5---0--3-0-3-5---------------|

G----------------------------------------------------|
D----------------------------------------------------|
A----------------------------------------5-3-2-0-----|
E-0--3-0-3-5---0--3-0-3-5---0--3-0-3-5---------------|

3:04

G----------------------------------------------------|
D----------------------------------------------------|
A----------------------------------------------------|
E-0--3-0-3-5---0--3-0-3-5---0--3-0-3-5--0--3-0-3-5---|

G----------------------------------------------------|
D----------------------------------------------------|
A----------------------------------------5-3-2-0-----|
E-0--3-0-3-5---0--3-0-3-5---0--3-0-3-5---------------|