Live - Feel The Quiet River Rage Chords & Tabs

 

Feel The Quiet River Rage Chords & Tabs

Live Chords & Tabs

Version: 1 Type: Bass Tab 0 ratings
1 star 2 stars 3 stars 4 stars 5 stars
comments

Feel The Quiet River Rage Bass Tab

Song:      Feel the Quiet River Rage
Artist:    Live
Album:     The Distance to Here
Tabbed By: Jason Mangan 

Bass should be detuned a half step, low to high Eb, Ab, Db, Gb.

Verse Riff           (bunch of times)                       (into chorus)
|-----------------|-----------------|-----------------|-----------------|
|-----------------|-----------------|-----------------|-----------------|
|-------5-----5-7-|-------5-----5---|-------5-----5-7-|-------5-----5---|
|0--5h7-----7-----|0--5h7-----7---7-|0--5h7-----7-----|0--5h7-----7---5-|
 1 *  2 * 3 * 4 *  1 *  2 * 3 * 4 *  1 *  2 * 3 * 4 *  1 *  2 * 3 * 4 *  
[ Tab from: http://www.guitartabs.cc/tabs/l/live/feel_the_quiet_river_rage_btab.html ]
Chorus            (when into verse)  
|----------------|----------------|-----------------|----------------|
|----------------|----------------|-----------------|----------------|
|----------------|----------------|3---3-3---3-3h5--|----------------|
|3--2--0--000000-|3--2--0--0007\--|---------------0-|5---5-5---5-8\--|
 1 * 2 * 3 * 4 *  1 * 2 * 3 * 4 *  1 * 2 * 3 * 4  *  1 * 2 * 3 * 4 * 

Outro
|-----------------|-----------------|-----------------|-----------------|
|-----------------|-----------------|4h5-5--5-4h5-555-|5h7-7--7-5h7-777-|
|5h7-7--7-5h7-777-|5h7-7--7-5h7-777-|-----------------|-----------------|
|-----------------|-----------------|-----------------|-----------------|
 1  * 2 * 3 * 4 *  1  * 2 * 3 * 4 *  1  * 2 * 3 * 4 *  1  * 2 * 3 * 4 * 

Only a quick transcription, but it should give you a good idea of how to play the song.
Comments