Live - Dolphins Cry Chords & Tabs

 

Dolphins Cry Chords & Tabs

Live Chords & Tabs

Version: 1 Type: Bass Tab

Dolphins Cry Bass Tab

   
Song: Dolphin’s Cry
Tabbed by JMack
Tuning:Eb Ab Db Gb
KEYS:
~=Let Ring
/=Slide Up
\=Slide Down
X= Muted

VERSE
G|-------|
D|-------|
A|-------|
E|--2----|

1ST CHORUS
G|-------------------------------------------------------|
D|-------------------------------------------------------|
A|--4--4--4-2-2----------0-0-2--4--4--4-2-2--------------|
E|---------------2--2--2--------------------0-2--2--2/---|

G|----------------------|
D|----------------------|
A|--4--4--4-2-2---------|
E|--------------0--2----|

2nd VERSE
G|-------------------------------------------------------------|
D|-------------------------------------------------------------|
A|--4--4--0----0-2-4--4--0----0-2-4--4-0----0--7--7--7--X-2-2--|x2
E|-------------------------------------------------------------|

G|------------------|
D|------------------|
A|------------------|
E|--2--------2/-----|

2nd CHORUS
G|-------------------------------------------------------|
D|-------------------------------------------------------|
A|--4--4--4-2-2----------0-0-2--4--4--4-2-2--------------|
E|---------------2--2--2--------------------0-2--2--2/---|

G|-----------------------------------|
D|-----------------------------------|
A|--4--4--4-2-2----------------------|
E|--------------0--2--2--2--2--2--0--|

1st Bridge
G|----------------------------------------------|
D|----------------------------------------------|
A|-7--7--7--7--7--------------------------------|
E|----------------7--7--7--7--7--5--5--5--5--5--|

G|---------------------------------|
D|---------------------------------|
A|---------------------------------|
E|--0~2-2--X-0-2--0-2-0--2~3~2~0---|
[ Tab from: http://www.guitartabs.cc/tabs/l/live/dolphins_cry_btab.html ]
G|----------------------------------------------|
D|----------------------------------------------|
A|-7--7--7--7--7--------------------------------|
E|----------------7--7--7--7--7--5--5--5--5--5--|

G|-------------------|
D|-------------------|
A|-------------------|
E|--0~-2-2--X-0-2----|

3rd VERSE 
SAME AS 2nd VERSE 

3rd CHORUS 
SAME AS 2nd CHORUS

2nd Bridge:
G|----------------------------------------------|
D|----------------------------------------------|
A|-7--7--7--7--7--------------------------------|
E|----------------7--7--7--7--7--5--5--5--5--5--|

G|---------------------------------|
D|---------------------------------|
A|---------------------------------|
E|--0~2-2--X-0-2--0-2-0--2~3~2~0---|

G|----------------------------------------------|
D|----------------------------------------------|
A|-7--7--7--7--7--------------------------------|
E|----------------7--7--7--7--7--5--5--5--5--5--|

G|----------------------------------------------------------------|
D|----------------------------------------------------------------|
A|----------------------------------------------------------------|
E|--0~2-2--X-0-2--0-2-0--2~3~2~0---0~2-2--X-0-2--0-2-0--2~3~2~0---|

G|----------------------------------------------------------------|
D|----------------------------------------------------------------|
A|----------------------------------------------------------------|
E|--0~2-2--X-0-2--0-2-0--2~3~2~0---0~2-2--X-0-2--0-2-0--2~3~2~0---|

OUTRO
G|-------------------------------------------------------|
D|-------------------------------------------------------|
A|--4--4--4-2-2----------0-0-2--4--4--4-2-2--------------|
E|---------------2--2--2--------------------0-2--2--2/---|

G|-----------------------------------|
D|-----------------------------------|
A|--4--4--4-2-2----------------------|
E|--------------0--2--2--2--2--2--0--|