Live - Dance With You Chords & Tabs

 

Dance With You Chords & Tabs

Live Chords & Tabs

Version: 2 Type: Tab 0 ratings
1 star 2 stars 3 stars 4 stars 5 stars
comments

Dance With You Tab

   
Person: Dolf Bredenkamp

song: Dance with you

artist: Live

tab: Dance with you by Live

tabbed by D. Bredenkamp(dolfb@netactive.co.za)

I don't know the names of the chords, so I named them by the bass note.



   C#    C    A#   C#II   CII    D#     F# 
e|------------6----9-------8----------------------|
B|--4----3----8----11------10-----6-----9---------|
G|--6----6----8----11------10-----8-----11--------|
D|--6----6----8----11------10-----8-----11--------|
A|------------------------------------------------|
E|------------------------------------------------|



INTRO:

This is only the basic pattern. Listen carefully to the CD to figure
out the rythm.


e|---------------------------------------------------|
B|--4--4--4-----4--4-----4---3--3--3-----3--3-----3--|
G|--6--6--6--6--6--6--6--6---6--6--6--6--6--6--6--6--|
D|-----------6--------6--6------------6--------6--6--|
A|---------------------------------------------------|
E|---------------------------------------------------|


e|--6--6--6-----6--6--6---9---9---9-------9---9---9---|
B|--8--8--8-----8--8--8---11--11--11------11--11--11--|
G|--8--8--8--8--8--8--8---11--11--11--11--11--11--11--|
D|-----------8--------8---------------11----------11--|
A|----------------------------------------------------|
E|----------------------------------------------------|



Verse: (Same as intro)


C#                 C                         A#
 Sitting on the beach, the island king of love,

                  C#II                        C#  
deep in Fijian sees, deep in some blisfull dream

                            C                         A#
 where the goddess finally sleeps, in the lap of her lover,

                    C#II                          C#  
subdued in all her rage, and I'm aglow with the taste
 
                     C                  A#
  the demons driven out and hapily replaced

                             C#II
with the pressence of real love, the only one who saves


Chorus:

C#          C         C#
  I wanna dance with you

         C                  A#                     CII
I see a world where people live and die with grace

C#II                                          
  the karmic ocean dried up and leave no trace

C#         C         C#
 I wanna dance with you 

          C                A#                        CII
 I see a sky full of the stars that change our minds

C#II
  and lead us back to a world we would not face


Verse 2:

C#                       C                    A#
  The stillness in your eyes convinces me that I

                  C#II                      C#        
I don't know a thing I've been around the world and I

                     C                       A#
I've tasted all the wines a half a billion times

                            C#II
I came sickened to your shores 

         
you showed me what this live is for


Chorus:

C#          C         C#
  I wanna dance with you

         C                  A#                     CII
I see a world where people live and die with grace

C#II                                          
  the karmic ocean dried up and leave no trace

C#         C         C#
 I wanna dance with you 
[ Tab from: http://www.guitartabs.cc/tabs/l/live/dance_with_you_tab_ver_2.html ]
          C                A#                        CII
 I see a sky full of the stars that change our minds

C#II
  and lead us back to a world we would not face


Bridge:

D#                   F#           D#
  in this altered state, full of so much pain and rage

               F#                         
 you know we got to find a way to let it go


Solo:

                                                                       
            
e|-----------------------------|
B|-----------------------------|
G|---6--6--6--6--6--8--8--8--6-|
D|-----------------------------|
A|-----------------------------|
E|-----------------------------|


e|-------------------------------------------------|
B|-------------------------------------------------|
G|-6h8--8p6--5--5--5h6p5--6/8--10h11--10--10h11p10-|
D|-------------------------------------------------|
A|-------------------------------------------------|
E|-------------------------------------------------|


                                                                       
         

e|----------------------------------------------------|
B|----------------------------------------------------|
G|--6h8--8--8/10--10--10/11\10--10--6h8--8/10--10/11--|
D|----------------------------------------------------|
A|----------------------------------------------------|
E|----------------------------------------------------|


e|-------------------------------------------------|
B|-------------------------------------------------|
G|--11-11--13--13--13--13--13--13--11--------------|
D|-------------------------------------------------|
A|-------------------------------------------------|
E|-------------------------------------------------|



e|-----------------------------------------|
B|-----------------------------------------|
G|--10h11p10--8--8h10p8--6--8h8p6--5--5/6--|
D|-----------------------------------------|
A|-----------------------------------------|
E|-----------------------------------------|


Verse 3:

C#                 C                         A#
 Sitting on the beach, the island king of love,

                  C#II                        C#  
deep in Fijian sees, deep in teh hart of it all

                            C                         
 where the goddess finally sleeps, after eons of wars, 
    
     A#                                   C#II   
a lifetime, she's smiling, free, nothing left 


but a cracking voice and a song o lord


Chorus:

C#          C         C#
  I wanna dance with you

         C                  A#                     CII
I see a world where people live and die with grace

C#II                                          
  the karmic ocean dried up and leave no trace

C#         C         C#
 I wanna dance with you 

          C                A#                        CII
 I see a sky full of the stars that change our minds

 C#II
  And lead us back to a world we would not face

C#               C
  we would not face
                 A#         C#II
  we would not face
                C#
  we would not face
                 C
  we would not face
                 A#         C#II 
  we would not face



Any comments, suggestions, or other stuff please notify me. There might
be mistakes with the lyrics,
buy the CD and get it from there. It's worth the trouble.

dolfb@netactive.co.za


Comments