Live - Dance With You Chords & Tabs

 

Dance With You Chords & Tabs

Live Chords & Tabs

Version: 1 Type: Tab 0 ratings
1 star 2 stars 3 stars 4 stars 5 stars
comments

Dance With You Tab

   
Song:Dance with you
Album:The Distance to Here
Artist:Live
Author:Frank Sortelli
Tuning:1/2 step down


This song is tuned one half step down(Eb,Ab,Db,Gb,Bb,Eb)

Eb|-(2)-----------------0-------3-----0--| Its important
Bb|--3------2-----------0-------3-----2--| to only hit
Gb|--2------2-----------0-------0-----2--| the strings 
Db|--0------0-----------2-------0-----2--| that are shown
Ab|--0------4-----------2-------2-----0--| in the chords.
eb|-(x)-----------------0-------3-----x--|
    D2(D)  Dmaj7/C#    Em      G2    A


intro/verse  D2 Dmaj7/C# Em G2

D2                Dmaj7/C#
sitting on a beach
                        Em
the island king of love
                    G2 
deep in fijian seas
                            D2
deep in some blissful dream
                                Dmaj7/C#
where the goddess finally sleep
                         Em
in the lap of her lover
                        G2
subdued in all her rage
                         D2                       Dmaj7/C#
and i am aglow with the taste of the demons driven out
                Em                              G2
and happily replaced with the presence of real love
                         D
the only one who saves

Chorus:
D         A             
I want to dance with you
D          A                Em                 
I see a world where people live and die with grace
    G2
the karmic ocean dried up and leave no trace
D          A
I want to dance with you
D          A             Em                       
I see a sky full of the stars that change our minds
     G2                                         D2
and lead us back to the world we would not face

verse2:
D2                         Dmaj7/C#
the stillness in your eyes
                    Em
convinces me that I,
                    G2
I dont know a thing
                             D2
and ive been around the world and I,
                     Dmaj7/C#
I've tasted all the wines
                       Em
a half a billion times
                             G2
came sickened to your shores
                                 D
you show me what this life is for

chorus:
D         A
I want to dance with you
D         A               Em                   
I see a world here people live and die with grace
    G2
the karmic ocean dried up and leave no trace
D         A         
I want to dance with you
D       A               Em           
I see a sky full of the stars that change our minds
     G2                                         Em
and lead us back to the world we would not face
[ Tab from: http://www.guitartabs.cc/tabs/l/live/dance_with_you_tab.html ]
bridge:
Em              G2     
in this altered state
          Em                  
full of so much pain and rage
               G2                  
you know we've got to find a way
            Em
to let it go

solo:
(((doesnt exactly show how many time to hit each note)))
Eb|----------------------------------------------------------------------|
Bb|----------------------------------------------------------------------|
Gb|--7-777-7h9-9999---7-777-7h9-9p7--6-6h7p6--7-7h9-11-11-11-------------|
Db|----------------------------------------------------------------------|
Ab|----------------------------------------------------------------------|
eb|----------------------------------------------------------------------|

Eb|----------------------------------------------------------------------|
Bb|----------------------------------------------------------------------|
Gb|--7-7h9-9-9h11-11-11h12-12p11------7-7h9-9-9h11-11-11h12-121212---14--|
Db|----------------------------------------------------------------------|
Ab|----------------------------------------------------------------------|
eb|----------------------------------------------------------------------|

Eb|----------------------------------------------------------------------|
Bb|----------------------------------------------------------------------|
Gb|--14-1414---12-11h12p9--9h11p7---7h9p6--6h7-7-------------------------|
Db|----------------------------------------------------------------------|
Ab|----------------------------------------------------------------------|
eb|----------------------------------------------------------------------|

Verse3:
D2                 Dmaj7/C#
sitting on a beach
                        Em
the island king of love
                    G2
deep in fijian seas
 
deep in the heart of it all
D2                              Dmaj7/C#
where the goddess finally sleeps
                               Em
after eons of war and liftimes
                     G2
shes smilein' and free
                                                 D
nothing left, but a cracking voice and a song, oh lord

chorus:
D         A
I want to dance with you
D       A                   Em                   
I see a world where people live and die with grace
     G2 
the karmic ocean dried up and leave no trace
D         A            
I want to dance with you
D         A               Em          
I see a sky full of the stars that change our minds 
     G2
and lead us back to the world we would not face

outro:
D2               Dmaj7/C#
we would not face
                 Em    G2
we would not face
              D2
we would not face
              Dmaj7/C#   
we would not face
             Em      G2
we would not face

((((end on G2))))

email me for questions or comments, unless its to rant and rave about what you think is wrong
frank sortelli    Firebreather6@cs.com
7:43 PM 9/5/01  copyright 2001
Comments