Little River Band - Lady Chords & Tabs

 

Lady Chords & Tabs

Little River Band Chords & Tabs

Version: 3 Type: Tab 0 ratings
1 star 2 stars 3 stars 4 stars 5 stars
comments

Lady Tab

----------------------------------------------------------------------------
*************************Little River Band--Lady****************************
----------------------------------------------------------------------------

E|-------------------------------------------------------------------|
B|---12b14--12b14--12b14--12b14--12b14--12--10-----------------------|
G|-----------------------------------------------11--9--12b14--12b14-|
D|-------------------------------------------------------------------|
A|-------------------------------------------------------------------|
E|-------------------------------------------------------------------|
[ Tab from: http://www.guitartabs.cc/tabs/l/little_river_band/lady_tab_ver_3.html ]
E|----------------------------------------|
B|----------------------------17----------|
G|-------------------14-16b18----17r16-14-|
D|----------14-14h16----------------------|
A|-14-14h16-------------------------------|
E|----------------------------------------|

E|-14--------------------------------|
B|---------------------17------------|
G|-----14-16-14--16b18----17r16--14~~|
D|-----------------------------------|
A|-----------------------------------|
E|-----------------------------------|

E|12------------------------12h14-12-----------------------------|
B|--------------12-12b14-12----------14s12-10~-12b13r12-10~------|
G|---9-11-12-13--------------------------------------------------|
D|---------------------------------------------------------------|
A|---------------------------------------------------------------|
E|---------------------------------------------------------------|

E|------------------12----------------|
B|---------10-12b14----14r12-10~~~----|
G|--9-9h11----------------------------|
D|------------------------------------|
A|------------------------------------|
E|------------------------------------|
Comments