Little River Band - I Dream Alone Chords & Tabs

 

I Dream Alone Chords & Tabs

Little River Band Chords & Tabs

Version: 1 Type: Tab 0 ratings
1 star 2 stars 3 stars 4 stars 5 stars
comments

I Dream Alone Tab

   
I DREAM ALONE
By Derek Pellici and Glenn Shorrock

Intro:					  Verse chords:
				     	    D   A   D   G   D   A   G   D
E-2-----------------------------------------2---0---2---3---2---0---3---2---
B---5-3-2-0---------------------------------3---2---3---0---3---2---0---3---
G-----------2-------------------------------2---2---2---0---2---2---0---2---
D-------------4-2-0--------4-2-0---0-2-0--------2---------------------------
A--------------------2~3~2-------4------------------------------------------
E---------------------------------------------------------------------------

Verse2:
   A   D   G   D   A   D   G   D   A   D
E--0---2---3---2---0---2---3---2---0---2---
B--2---3---0---3---2---3---0---3---2---3---
G--2---2---0---2---2---2---0---2---2---2---
D--2---------------2---------------2-------
A------------------------------------------
E------------------------------------------
[ Tab from: http://www.guitartabs.cc/tabs/l/little_river_band/i_dream_alone_tab.html ]
Chorus:
    G   A   G   D   G   D   G   A   G   D
E---3---0---3---2---3---2---3---0---3---2---
B---0---2---0---3---0---3---0---2---0---3---
G---0---2---0---2---0---2---0---2---0---2---
D-------2-----------------------2---0-------
A-----------------------------------2-------
E-----------------------------------3-------

For the sake of laziness (and monotony)
I’ll just write the chords in this part of the chorus:

A	D	G	D	A	G

Repeat verse2 and chorus


Bridge:
    C    G    Fsus   F   C    G   Fsus   F   G
E---0----3----1------1---0----3----1-----1---3------
B---1----0----1------1---1----0----1-----1---0------
G---0----0----3------2---0----0----3-----2---0------
D---2----0----3------3---2----0----3-----3---0------
A---3----2---------------3----2--------------2------
E--------3--------------------3--------------3------

Verse3:
D   A   D   G   D   A   G   D   A   D   G

D   A   D   G	

Repeat chorus

End  with:  G






Comments