Lithic - Shrouded Chords & Tabs

 

Shrouded Chords & Tabs

Lithic Chords & Tabs

Version: 1 Type: Tab 0 ratings
1 star 2 stars 3 stars 4 stars 5 stars
comments

Shrouded Tab

   
Artist: Lithic
Song: Shrouded
Tabbed by: The Drum-Bum
Comments: This a great, young upcoming rock band, I have seen young talent like this since Hanson.


Intro
x2 
E :------------------------------------------------------------------------
 B :------------------------------------------------------------------------
 G :----------------------4-h-5------------------------------------------------
 D :------------------------------------------------------------------------
 A :------------------------------------------------------------------------
 E :----0 00  222---0---------------------------------------------------------

x2
E :------------------------------------------------------------------------
 B :------------------------------------------------------------------------
 G :---------------------4-4--------------------------------------------------
 D :------------------------------------------------------------------------
 A :------------------------------------------------------------------------
 E :----0-00-222-0-----------------------------------------------------------

x3
E :------------------------------------------------------------------------
 B :------------------------------------------------------------------------
 G :------------------------------------------------------------------------
 D :------------------------------------------------------------------------
 A :------------------------------------------------------------------------
 E :---0-00-222-0-000-22-3--------------------------------------------

E :------------------------------------------------------------------------
 B :------------------------------------------------------------------------
 G :------------------------------------------------------------------------
 D :------------------------------------------------------------------------
 A :------------------------------------------------------------------------
 E :---0-00--222-3--------------------------------------------------------





 Chorus/Intro to Verse
Em	F#m	 Em	 F#m-Gm     x4

Am      B       Am	B-C	      x2	

Em  	F#m	 Em	 F#m-Gm      x2

Bm                      Am

Verse
Em	Gm-F#m

Em	Gm-F#m-Am

Pre-Chorus
C	D
C	D-B

Chorus
Em	F#m	 Em	 F#m-Gm     x4

Am      B       Am	B-C	      x2	

Em  	F#m	 Em	 F#m-Gm      x2

Bm                      Am

Verse
Em	Gm-F#m

Em	Gm-F#m-Am

Pre-Chorus
C	D
C	D-B

Chorus
Em	F#m	 Em	 F#m-Gm     x4
[ Tab from: http://www.guitartabs.cc/tabs/l/lithic/shrouded_tab.html ]
Am      B       Am	B-C	      x2	

Em  	F#m	 Em	 F#m-Gm      x2

Bridge

E :------------------------------------------------------------------------
B :------------------------------------------------------------------------
 G :------------------------------------------------------------------------
 D :------------------------------------------------------------------------
 A :------------------------------------------------------------------------
 E :--222222222222-0000-33333333333-5555---------------------

Do this For a Long time and then the drums do a fill at 5:57 on the CD.

Chorus
Em	F#m	 Em	 F#m-Gm     x4

Am      B       Am	B-C	      x2	

Em  	F#m	 Em	 F#m-Gm      x2

The Music fades out and the vocals sing solo :”and I-I-I wish I could, Kill what I’ve become.” The Music fades out more and
You come in with the chorus but it’s instrumental at 6:59 on the CD.





Lead type thing:
E :------------------------------------------------------------------------
 B :------------------------------------------------------------------------
 G :--11-12-11-11-12-11--9-7-5-4--------------------------------------
 D :------------------------------------------------------------------------
 A :---9- 10-9-   9- 10- 9-- 7-5-3-2----------------------------------------
 E :------------------------------------------------------------------------

E :------------------------------------------------------------------------
 B :------------------------------------------------------------------------
 G :----11-12-11-11-14-12-11-9--------------------------------------
 D :------------------------------------------------------------------------
 A :---  9 -10- 9- 10- 12-10-9--7-------------------------------------------
 E :------------------------------------------------------------------------

E :------------------------------------------------------------------------
 B :------------------------------------------------------------------------
 G :--11-12-11-11-12-11--9-7-5-4--------------------------------------
 D :------------------------------------------------------------------------
 A :---9- 10-9-   9- 10- 9-- 7-5-3-2----------------------------------------
 E :------------------------------------------------------------------------

E :------------------------------------------------------------------------
 B :------------------------------------------------------------------------
 G :----11-12-11-11-14-12-11-9---7--5--4------------------------------
 D :------------------------------------------------------------------------
 A :---  9 -10- 9- 10- 12-10-9--7-- 5--3--2-------------------------------
 E :------------------------------------------------------------------------


End on Em

I don’t think this tab is 100%, the lead is especially shaky but I’ve only seen the video once and I tabbed it from memory.













Comments