Litfiba - Onda Araba Chords & Tabs

 

Onda Araba Chords & Tabs

Litfiba Chords & Tabs

Version: 1 Type: Tab 0 ratings
1 star 2 stars 3 stars 4 stars 5 stars
comments

Onda Araba Tab

Onda Araba


dopo 40 secondi

   |       3 volte        |    2 volte    |
E--|----------------------|---------------|
B--|----------------------|---------------|    
G--|-11-12-14--14-12-11-12|---11-12-14-12-|


2.41

           2 volte
E--------------------------------------------|
B--------------------------------------------|
G--------------------------------------------|
D---4-5-7--7-5-4-5---4-5-4------5-4----------|
A-----------------------------3------6-8-6-5-|
E--------------------------------------------|

[ Tab from: http://www.guitartabs.cc/tabs/l/litfiba/onda_araba_tab.html ]
2.59
           2 volte
E--------------------------------------------|
B--------------------------------------------|
G-11-12-14-12---11-12-14--14-12-11-12--------|
D--------------------------------------------|
A--------------------------------------------|
E--------------------------------------------|


3.19
         2 volte
E------------------------------|
B------------------------------|
G------------------------------|
D----0--4--7-------------------|
A------------3----5-6-5--5-6-5-|
E------------------------------|


3.43
    
                 4 volte                  | 2 volte  |  
E-----------------------------------------|----------|
B-----------------------------------------|----------|
G-----------------------------------------|----------|
D---4-5-7--7-5-4-5--4-5-4-5---5-4---------|4-5-4-5-4-|
A---------------------------3-----6-8-6-5-|----------|
E-----------------------------------------|----------|


Comments