Litfiba - Lul E Marlene Chords & Tabs

 

Lul E Marlene Chords & Tabs

Litfiba Chords & Tabs

Version: 1 Type: Bass Tab 0 ratings
1 star 2 stars 3 stars 4 stars 5 stars
comments

Lul E Marlene Bass Tab

LITFIBA - LULù E MARLENE

BASS TAB

Intro:
G|-----------------------------|
D|-----------------------------|
A|---------1-1-----41---------|x 5
E|-1-1-----------------1-1-----|
[ Tab from: http://www.guitartabs.cc/tabs/l/litfiba/lul_e_marlene_btab.html ]
Strofe (la 1a strofa inizia da "Lulù, la luce è vuota..."):
G|------------------|------------------|------------------|------------------|
D|------------------|------------------|------------------|------------------|
A|------------------|-4-44-4-4-4-4-4-4-|------------------|-1-11-1-1-1-1-1-1-|
E|-1-11-1-1-1-1-1-1-|------------------|-1-11-1-1-1-1-1-1-|------------------|

Stacco tra le strofe / Outro:
G|------------------|-----------------|
D|------------------|-----------------|
A|---------4-4------|---------1-1-----|
E|-1-1--------------|-1-1-------------|

A "...invincibile, impalpabile per noi" fa 2 volte l'intro 




Per commenti o correzioni la mia mail è fleafly_@libero.it
Comments