Litfiba - Fata Morgana Chords & Tabs

 

Fata Morgana Chords & Tabs

Litfiba Chords & Tabs

Version: 2 Type: Bass Tab

Fata Morgana Bass Tab

LITFIBA - FATA MORGANA - BASS TAB

Intro:
G|-----------|
D|-----------|
A|-0---------|
E|-----------|

Riff:
G|-----------------|-----------------|
D|-----------------|-----------------|
A|-----------------|-----------------|-0
E|-5-5-5-5-0-0-0-0-|-1-1-1-1-3-3-3-3-|

Riff 2
G|-----------------|------------------|
D|-----------------|------------------|
A|-----------------|------------------|
E|-55----5-00----0-|11---1-3-1-3-(1/5)|

Riff 3
G|-----------------|------------------|
D|-----------------|------------------|
A|-----------------|------------------|
E|-5-----5-0-----0-|1----1-3-1-3-(1/5)|
[ Tab from: http://www.guitartabs.cc/tabs/l/litfiba/fata_morgana_btab_ver_2.html ]
Pre-strofa:
G|------------|
D|------------|
A|-/12~-------|
E|------------|

Strofa:
G|----------------|
D|----------------|
A|-0---3---2---3--|
E|----------------|

Strofa var.:
G|----------------|
D|----------------|
A|-0---3---2---131|
E|----------------|


STRUTTURA:

Intro x5 

Pausa x2

Riff x2 

Riff2 x2 

Pre-strofa x1

Strofa x3 

strofa var. x1

Strofa x2 

strofa var. x4  

Pausa x2

Riff x2

Riff2 x16 

riff3 x4

Pausa x1

Riff x2 

Strofa x2 

Strofa var. x4 

strofa x3 

strofa var 

Riff x4 


by Paolo Volpe  meglio Schuldiner_unico_dio@hotmail.com

Comments: Aff mammaaaaaaat