Lit - Ziplock Chords & Tabs

 

Ziplock Chords & Tabs

Lit Chords & Tabs

Version: 3 Type: Tab 0 ratings
1 star 2 stars 3 stars 4 stars 5 stars
comments

Ziplock Tab

   Lit
   Zip-Lock
   A Place in the sun

   Intro/Rythm during solo/Between verses
   E------------------------------------------------|
   B------------------------------------------------|
   G--------6-6--6-6-6--4-4-4-4-4-3---4-4-4-4-4-3---| 
   D-4-4-4--6-6--6-6-6--4-4-4-4-4-3---4-4-4-4-4-3---| 
   A-4-4-4--4-4--4-4-4--2-2-2-2-2-1---2-2-2-2-2-1---|
   E-2-2-2------------------------------------------|
   
   Lead
   E------------------------------------------------|
   B--11--------------------------------------------|
   G-----11-11-11-----------------------------------| 
   D------------------------------------------------| 
   A------------------------------------------------|
   E------------------------------------------------|
   
   Verse
   E------------------------------------|
   B------------------------------------|
   G----4-------------------------------|  
   D-4--4-------------------------------| 
   A-4--2-------------------------------|
   E-2----------------------------------|

   Pre-Chorus
   E----------------------------------------------------|
   B----------------------------------------------------|
   G-6-6-6-6-6-6-6-6--4-4-4-4-4-4-4-4-------------------|
   D-6-6-6-6-6-6-6-6--4-4-4-4-4-4-4-4--4-4-4-4-4-4-4-4--|
   A-4-4-4-4-4-4-4-4--2-2-2-2-2-2-2-2--4-4-4-4-4-4-4-4--|
   E-----------------------------------2-2-2-2-2-2-2-2--|
[ Tab from: http://www.guitartabs.cc/tabs/l/lit/ziplock_tab_ver_3.html ]
   E----------------------------------------------------|
   B----------------------------------------------------|
   G----------------------------------------------------|
   D-2-2-2-2-2-2-2-2--2-2-2-2-2-2-2-2--2-2-2-2-2-2-2-2--|
   A-2-2-2-2-2-2-2-2--2-2-2-2-2-2-2-2--2-2-2-2-2-2-2-2--|
   E-0-0-0-0-0-0-0-0--0-0-0-0-0-0-0-0--0-0-0-0-0-0-0-0--|

   Chorus
   E--------------------------------------------------|
   B--------------------------------------------------|
   G----------6-6-6-6--4-4-4-4-4-4-4-4----------------|
   D-4-4-4-4--6-6-6-6--4-4-4-4-4-4-4-4----------------|
   A-4-4-4-4--4-4-4-4--2-2-2-2-2-2-2-2----------------|
   E-2-2-2-2------------------------------------------|

   Solo
   E--------------------------------------------------|
   B--------------------------------------------------|
   G--11-11-11-11-11-13-13-13-15-11--11-10------------|
   D--------------------------------------------------|
   A--9--9--9--9--9--11--11--11--13--9--8-------------|
   E-------------------------------------------------|  
        
   E--------------------------------------------------|
   B--------------------------------------------------|
   G-8-8-8-8-6-6-6-6----------------------------------|
   D--------------------------------------------------|
   A-6-6-6-6-4-4-4-4----------------------------------|
   E--------------------------------------------------
well try it out and tell me what you think
when i play this with my band it sounds great, but im not totally sure how accuate it is
Comments