Lit - Ziplock Chords & Tabs

 

Ziplock Chords & Tabs

Lit Chords & Tabs

Version: 1 Type: Tab 0 ratings
1 star 2 stars 3 stars 4 stars 5 stars
comments

Ziplock Tab

#----------------------------------PLEASE NOTE---------------------------------#
#This file is the author's own work and represents their interpretation of the #
#song. You may only use this file for private study, scholarship, or research. #
#------------------------------------------------------------------------------##

"ziplock"____________________________________________________________________ _______________intro+verses:________________________________________
----------------------------------------------------------------------
----------------------------------------------------------------------
----------------------------------------------------------------------
--5-5-5-5-5--7-7-7-7-7--6-6-6-6-6-6-6-6-6-6--------------------
--5-5-5-5-5--7-7-7-7-7--6-6-6-6-6-6-6-6-6-6--------------------
--3-3-3-3-3--5-5-5-5-5--4-4-4-4-4-4-4-4-4-4--------------------
[ Tab from: http://www.guitartabs.cc/tabs/l/lit/ziplock_tab.html ]
_____________________________________________________________________________ _______________verses:______________________________________________

----------------------------------------------------------------------
----------------------------------------------------------------------
----------------------------------------------------------------------
--5----7--------------------------------------------------------------
--5----7--------------------------------------------------------------
--3----5--------------------------------------------------------------

_____________________________________________________________________________ _______________chorus:______________________________________________

----------------------------------------------------------------------
----------------------------------------------------------------------
----------------------------------------------------------------------
--5-5-5-5-5--7-7-7-7-7---------------------------------------------
--5-5-5-5-5--7-7-7-7-7---------------------------------------------
--3-3-3-3-3--5-5-5-5-5---------------------------------------------
Comments