Lit - Zip Lock Chords & Tabs

 

Zip Lock Chords & Tabs

Lit Chords & Tabs

Version: 4 Type: Tab 0 ratings
1 star 2 stars 3 stars 4 stars 5 stars
comments

Zip Lock Tab

Ziplock by Lit
   Album: A Place in the Sun
   Tabbed by Jeremy (jeremy123456@hotmail.com)

   There are 4 main parts to this song:

   Guitar 1:
   E-----------------------------------
   B-----------------------------------
   G-----------6666----444444---444444-
   D----4444---6666----444444---444444-
   A----4444---4444----222020---222020-
   E----2222---------------------------
[ Tab from: http://www.guitartabs.cc/tabs/l/lit/zip_lock_tab_ver_4.html ]
   Guitar 2: () = Pinch Harmonic
   E-----------------------------------
   B---(5)-------------(5)-------------
   G-----------------------------------
   D---------4444------------4444------
   A-----------------------------------
   E-----------------------------------


   E----------------------
   B----------------------
   G------------4---------
   D--4---------4--------- (X 4)
   A--4---------2---------
   E--2-------------------


   E-----------------------------
   B-----------------------------
   G--------------44444444-------
   D---44444444---44444444-------
   A---44444444---22222222-------
   E---22222222------------------

   Well that should cover most of the song. Listen to the song to figure
   out when to play each part and how many times.
Comments