Lit - Zip Lock Chords & Tabs

 

Zip Lock Chords & Tabs

Lit Chords & Tabs

Version: 2 Type: Tab 0 ratings
1 star 2 stars 3 stars 4 stars 5 stars
comments

Zip Lock Tab

Lit
   Zip-Lock
   Tabbed by: Jason Carter

   Intro/Played between verses/background on solo
   E------------------------------------------------|
   B------------------------------------------------|
   G--------6-6--6-6-6------------------------------| Don't know the little
   D-4-4-4--6-6--6-6-6--9-9-9--9-8--9-9-9--9-8------| riff played over this
   A-4-4-4--4-4--4-4-4--9-9-9--9-8--9-9-9--9-8------|
   E-2-2-2--------------7-7-7--7-6--7-7-7--7-6------|

   Verse
   E------------------------------------|
   B------------------------------------|
   G----4-------------------------------| There are some harmonics
   D-4--4-------------------------------| that I didn't tab out
   A-4--2-------------------------------|
   E-2----------------------------------|
[ Tab from: http://www.guitartabs.cc/tabs/l/lit/zip_lock_tab_ver_2.html ]
   Pre-Chorus
   E----------------------------------------------------|
   B----------------------------------------------------|
   G-6-6-6-6-6-6-6-6--4-4-4-4-4-4-4-4-------------------|
   D-6-6-6-6-6-6-6-6--4-4-4-4-4-4-4-4--4-4-4-4-4-4-4-4--|
   A-4-4-4-4-4-4-4-4--2-2-2-2-2-2-2-2--4-4-4-4-4-4-4-4--|
   E-----------------------------------2-2-2-2-2-2-2-2--|

   E----------------------------------------------------|
   B----------------------------------------------------|
   G----------------------------------------------------|
   D-2-2-2-2-2-2-2-2--2-2-2-2-2-2-2-2--2-2-2-2-2-2-2-2--|
   A-2-2-2-2-2-2-2-2--2-2-2-2-2-2-2-2--2-2-2-2-2-2-2-2--|
   E-0-0-0-0-0-0-0-0--0-0-0-0-0-0-0-0--0-0-0-0-0-0-0-0--|

   Chorus
   E--------------------------------------------------|
   B--------------------------------------------------|
   G----------6-6-6-6--4-4-4-4-4-4-4-4----------------|
   D-4-4-4-4--6-6-6-6--4-4-4-4-4-4-4-4----------------|
   A-4-4-4-4--4-4-4-4--2-2-2-2-2-2-2-2----------------|
   E-2-2-2-2------------------------------------------|

   Solo
   I don't have it yet. Anybody out there do?

   There you go.......now I can return to my Lit CD
Comments