Lit - Zip Lock Chords & Tabs

 

Zip Lock Chords & Tabs

Lit Chords & Tabs

Version: 1 Type: Tab 0 ratings
1 star 2 stars 3 stars 4 stars 5 stars
comments

Zip Lock Tab

   
X===============================PLEASE NOTE==============================X
X  This tab is all my own and represents my interpretation of the song.  X
X You may only use this tab for private study, scholarship, or research. X
X  Do not change, deface, mutilate, or in any other way alter this tab.  X
X   You must email me first if you want to use this tab on your site.    X
X========================================================================X


*Zip-Lock*
Transcribed by Obscured@san.rr.com
Http://home.san.rr.com/obscured


Tuning: E A D G B E


INTRO
|---------------------------------|
|---------------------------------|
|---------6-6-6-6-4-4-4-4-4-4-4-4-|
|-4-4-4-4-6-6-6-6-4-4-4-4-4-4-4-4-|
|-4-4-4-4-4-4-4-4-2-2-2-1-2-2-2-1-|
|-2-2-2-2-------------------------|

 Lead
|-----------------------------------------|
|-----------------------------------------|
|-------11-------11-------11-------11-----|
|-----------------------------------------|
|-(9)-9----9---9----9---9----9---9----9---|
|-----------------------------------------|

 Lead 2
|-18---------18---------18---------18---------|
|----19---------19---------19---------19------|
|---------------------------------------------|
|---------------------------------------------|
|---------------------------------------------|
|---------------------------------------------|


VERSE
|-------------------|
|-------------------|
|----------4--------|
|-4--------4--------|
|-4--------2--------|
|-2-----------------|

[ Tab from: http://www.guitartabs.cc/tabs/l/lit/zip_lock_tab.html ]
PRECHORUS
|-------------------------------------|
|-------------------------------------|
|-6--------4--------------------------|
|-6--------4--------4--------2--------|
|-4--------2--------4--------2--------|
|-------------------2--------0--------|


CHORUS
                  x2                  x2
|-------------------|-------------------|
|-------------------|-------------------|
|----------4--------|-6--------4--------|
|-4--------4--------|-6--------4--------|
|-4--------2--------|-4--------2--------|
|-2--------2--------|-4--------2--------|

Lead plays lead 2 from intro


BRIDGE - Play intro


VERSE 2

 Lead
|-2---------2---------2---------2---------|
|----2---------2---------2---------2------|
|-----------------------------------------|
|-----------------------------------------|
|-----------------------------------------|
|-----------------------------------------|


PRECHORUS 2 - Same


CHORUS 2 - Same


BRIDGE 2 - Same

 Lead
|-------------------------------------------------|
|-------------------------------------------------|
|-11-11-11/13-13-13--11-11-11\10-10-10\8-8-8\6----|
|-------------------------------------------------|
|-9--9--9-/11-11-11--9--9--9-\8--8--8-\6-6-6\4----|
|-------------------------------------------------|

|-------------------------------------------------|
|-------------------------------------------------|
|-11-11-11/13-13-13--11-11-11\10-10-10\8-8-8/10---|
|-------------------------------------------------|
|-9--9--9-/11-11-11--9--9--9-\8--8--8-\6-6-6/8----|
|-------------------------------------------------|


VERSE 3 - Guitars tacet w/some feedback


PRECHORUS 3 - Same


CHORUS 3/OUTRO
                  x4                  x2
|-------------------|-------------------|
|-------------------|-------------------|
|----------4--------|-6--------4--------|
|-4--------4--------|-6--------4--------|
|-4--------2--------|-4--------2--------|
|-2--------2--------|-4--------2--------|
Comments