Lit - Zip Lock Chords & Tabs

 

Zip Lock Chords & Tabs

Lit Chords & Tabs

Version: 2 Type: Bass Tab 0 ratings
1 star 2 stars 3 stars 4 stars 5 stars
comments

Zip Lock Bass Tab

btab: zip lock
group: lit
author: baz (bazbass@hotmail.com)

** taken from baz bass tab archive - http://baz.homepad.com **


intro

G------------------------------------------------| Don't know the little
D------------------------------------------------| riff played over this
A--------4-4--4-4-4------------------------------|
E-2-2-2--------------7-7-7--7-6--7-7-7--7-6------|

verse

G--------------------------------------| Play This with the Cd
D--------------------------------------| 
A-------2-222--------------------------|
E-2-222--------------------------------|

pre-chorus
[ Tab from: http://www.guitartabs.cc/tabs/l/lit/zip_lock_btab_ver_2.html ]
G----------------------------------------------------|
D----------------------------------------------------|
A-4-4-4-4-4-4-4-4--2-2-2-2-2-2-2-2-------------------|
E-----------------------------------2-2-2-2-2-2-2-2--|

G----------------------------------------------------|
D----------------------------------------------------|
A----------------------------------------------------|
E-0-0-0-0-0-0-0-0--0-0-0-0-0-0-0-0--0-0-0-0-0-0-0-0--|

Chorus

G--------------------------------------------------|
D--------------------------------------------------|
A----------4-4-4-4--2-2-2-2-2-2-2-2----------------|
E-2-2-2-2------------------------------------------|


Comments