Lit - Too Fast For A U-turn Chords & Tabs

 

Too Fast For A U-turn Chords & Tabs

Lit Chords & Tabs

Version: 1 Type: Tab 0 ratings
1 star 2 stars 3 stars 4 stars 5 stars
comments

Too Fast For A U-turn Tab

|-----------------|-----------------|
|-----------------|-----------------|
|---7---7---7-5h7-|---7---7---7-5h7-|
|-----------------|-----------------|
|-5---5---5-------|-5---5---5-------|
|-----------------|-----------------|

[ Tab from: http://www.guitartabs.cc/tabs/l/lit/too_fast_for_a_u_turn_tab.html ]
|-----------------|---------------------------|
|-----------------|---------------------------|
|---7---7---7-5h7-|-10h12-10------------------|
|-----------------|-----------12p10----10h12--|
|-5---5---5-------|-----------------12--------|
|-----------------|---------------------------|


  Gtr I
|-----------------|-----------------|-----------------|--------------------------|
|-----------------|-----------------|-----------------|--------------------------|
|---7---7---7-5h7-|---7---7---7-5h7-|---7---7---7-5h7-|-10h12-10-----------------|
|-----------------|-----------------|-----------------|-----------12p10----10b---|
|-5---5---5-------|-5---5---5-------|-5---5---5-------|-----------------12-------|
|-----------------|-----------------|-----------------|--------------------------|
Comments