Lit - Something To Someone Chords & Tabs

 

Something To Someone Chords & Tabs

Lit Chords & Tabs

Version: 1 Type: Tab 0 ratings
1 star 2 stars 3 stars 4 stars 5 stars
comments

Something To Someone Tab

This is an awesome song by Lit
Drop D tuning

Intro (w/dist)
[ Tab from: http://www.guitartabs.cc/tabs/l/lit/something_to_someone_tab.html ]
---------------------------------------------------------------------
---------------------------------------------------------------------
--13-13-13-/12-12-12-/10-10-10-/8-----6-6-6-/5-5-5-/3-3-3------------
---x--x--x---x--x--x---x--x--x--x-----x-x-x--x-x-x--x-x-x-6~~~~------
--11-11-11-/10-10-10-/-8--8--8-/6-----4-4-4-/3-3-3-/1-1-1-6~~~~------
----------------------------------------------------------6~~~~------
Verse
---------------------------------------------------------------------
---------------------------------------------------------------------
---------------------------------------------------------------------
--6~~~~~~~~~~~~~---/3~~~~~~~~~~~~~---/1~~~~~~~~~~~~------------------
--6~~~~~~~~~~~~~---/3~~~~~~~~~~~~~---/1~~~~~~~~~~~~------------------
--6~~~~~~~~~~~~~---/3~~~~~~~~~~~~~---/1~~~~~~~~~~~~------------------
Guitar 2 Plays This at the same time      (play last 3 cords 3x each)
---------------------------------------------------------------------
---------------------------------------------------------------------
------------------------------------------8-8-8-/12-12-12--6---5--3--
------------------------------------------x-x-x---x--x--x--x---x--x--
------------------------------------------6-6-6-/10-10-10--4---3--1--
---------------------------------------------------------------------
Pre-Chorus
---------------------------------------------------------------------
---------------------------------------------------------------------
---------------------------------------------------------------------
--6-x-x-x-6-x-x-x-6-x-x-x--3-3-3-3-3-3-/1-1-1-1-1-1-1-1--------------
--6-x-x-x-6-x-x-x-6-x-x-x--3-3-3-3-3-3-/1-1-1-1-1-1-1-1--------------
--6-x-x-x-6-x-x-x-6-x-x-x--3-3-3-3-3-3-/1-1-1-1-1-1-1-1--------------

Chorus
---------------------------------------------------------------------
---------------------------------------------------------------------
---------------------------------------------------------------------
--6~~~~~~~~~~~~~~~~~--3~~~~~~~~~~~~~~~---1~~~~~~~~~~~----------------
--6~~~~~~~~~~~~~~~~~--3~~~~~~~~~~~~~~~---1~~~~~~~~~~~----------------
--6~~~~~~~~~~~~~~~~~--3~~~~~~~~~~~~~~~---1~~~~~~~~~~~----------------
Comments