Lit - Quicksand Chords & Tabs

 

Quicksand Chords & Tabs

Lit Chords & Tabs

Version: 3 Type: Tab 0 ratings
1 star 2 stars 3 stars 4 stars 5 stars
comments

Quicksand Tab

Song : Quicksand
Band : Lit
Tabbed By : Diamond Jerry (Raptureboy182@yahoo.com)


Standard Tuning
------------------------------------------------------------------------------

[Intro]  

(Riff) guitar effect....not sure if it's rite or not....
e|--------------------------------------|
B|--------------------------------------|
G|--------------------------------------| repeat several times
D|--------------------------------------|
A|--7---7---7---7---7---7---7---7---7---|
E|----0---0---0---0---0---0---0---0---0-|


[Verse]
e|-----------------------------------|---------------------------------------|
B|-----------------------------------|---------------------------------------|
G|--99999999-------------------------|--11-1---22-2---55-5---77-7------------|
D|--99999999--1111-\-99-/1111--(2x)--|--22-2---44-4---77-7---99-9--(2x)------| x2
A|--77777777--1111-\-99-/1111--------|--22-2---44-4---77-7---99-9------------|
E|--77777777---9-9-\-77-/-9-9--------|--00-0---22-2---55-5---77-7------------|


[Chorus]
e|---------------------------------------------------------------------------|
B|---------------------------------------------------------------------------|
G|--5-55-555--77777777-----5-55-555--77777777-----5-55-555--77777777---------|
D|--7-77-777--99999999-----7-77-777--99999999-----7-77-777--99999999---------|
A|--7-77-777--99999999-----7-77-777--99999999-----7-77-777--99999999---------|
E|--5-55-555--77777777-----5-55-555--77777777-----5-55-555--77777777---------|
[ Tab from: http://www.guitartabs.cc/tabs/l/lit/quicksand_tab_ver_3.html ]
-with riff-
e|---------------------------------------|
B|---------------------------------------|
G|--11-1---22-2---55-5---77-7------------|
D|--22-2---44-4---77-7---99-9--(2x)------| 
A|--22-2---44-4---77-7---99-9------------|
E|--00-0---22-2---55-5---77-7------------|


-repeat verse-
-repeat chorus-


[Bridge]
e|---------------------------------------|
B|---------------------------------------|
G|---------------------------------------|
D|---------------------------------------|
A|--7~~-----7~--\6-\4-\2-2--/4-4-\2~-----|
E|---------------------------------------|

e|---------------------------------------------------------------------------|
B|---------------------------------------------------------------------------|
G|--9--9--\-5-5--/-7-7--/--9--9--\-5-5---------77777777----------------------|
D|-11-11--\-7-7--/-9-9--/-11-11--\-7-7---2-2---99999999---(4x)---------------|
A|-11-11--\-7-7--/-9-9--/-11-11--\-7-7---2-2---99999999----------------------|
E|--9--9--\-5-5--/-7-7--/--9--9--\-5-5---0-0---77777777----------------------|

-repeat verse-
-repeat chorus-


[Outro]
e|---------------------------------------|
B|---------------------------------------|
G|--1-1-1-1---2-2-2-2---5-5-5-5---7~-----|
D|--2-2-2-2---4-4-4-4---7-7-7-7---9~-----|
A|--2-2-2-2---4-4-4-4---7-7-7-7---9~-----|
E|--0-0-0-0---2-2-2-2---5-5-5-5---7~-----|


------------------------------------------------------------------------------

Any comments or corrections,just mail me to Raptureboy182@yahoo.com/ICQ #115343571
Comments