Lit - Quicksand Chords & Tabs

 

Quicksand Chords & Tabs

Lit Chords & Tabs

Version: 2 Type: Tab 0 ratings
1 star 2 stars 3 stars 4 stars 5 stars
comments

Quicksand Tab

   
X===============================PLEASE NOTE==============================X
X  This tab is all my own and represents my interpretation of the song.  X
X You may only use this tab for private study, scholarship, or research. X
X  Do not change, deface, mutilate, or in any other way alter this tab.  X
X   You must email me first if you want to use this tab on your site.    X
X========================================================================X


*Quicksand*
Transcribed by Obscured@san.rr.com
Http://home.san.rr.com/obscured


Tuning: E A D G B E


INTRO - Bass and synth only


VERSE
                        x2
|-------------------------|
|-------------------------|
|----------6-6--4/6\4-----|
|-2--------6-6--4/6\4-----|
|-2--------4-4--2/4\2(p0)-|
|-0-----------------------|

                    x2
|---------------------|
|---------------------|
|-----------2----4----|
|-2----4----2----4----|
|-2----4----0----2----|
|-0----2--------------|


PRECHORUS
|-------------------|
|-------------------|
|-2--------4--------|
|-2--------4--------|
|-0--------2--------|
|-------------------|

[ Tab from: http://www.guitartabs.cc/tabs/l/lit/quicksand_tab_ver_2.html ]
BRIDGE
                    x2
|---------------------|
|---------------------|
|-----------2----4----|
|-2----4----2----4----|
|-2----4----0----2----|
|-0----2--------------|


VERSE 2 - Same


PRECHORUS 2 - Same


BRIDGE 2 - Same


INTERLUDE
|-----------|
|-----------|
|-9~~~~~~~~-|
|-----------|
|-7~~~~~~~~-|
|-----------|

|--------------------------------|
|--------------------------------|
|-9--9-9\8-8\6-6\4-4-4/6--6-4----|
|--------------------------------|
|-7--7-7\6-6\4-4\2-2-2/4--4-2----|
|--------------------------------|


CHORUS
|-----------------------------------------------------|
|-----------------------------------------------------|
|-6---6-2---2-4---4-6---6-2---2-------4-4-4-4-4-4-4-4-|
|-6---6-2---2-4---4-6---6-2---2-2---2-4-4-4-4-4-4-4-4-|
|-4---4-0---0-2---2-4---4-0---0-2---2-2-2-2-2-2-2-2-2-|
|-------------------------------0---0-----------------|


VERSE 3 - Same


PRECHORUS 3 - Same


BRIDGE 3 - Same


PRECHORUS 4 - Same


BRIDGE 4 - Slow down the tempo

End on
|----------------------------------|
|----------------------------------|
|-----------------2-2-2-2-4--------|
|-2-2-2-2-4-4-4-4-2-2-2-2-4--------|
|-2-2-2-2-4-4-4-4-0-0-0-0-2--------|
|-0-0-0-0-2-2-2-2------------------|
Comments