Lit - Quicksand Chords & Tabs

 

Quicksand Chords & Tabs

Lit Chords & Tabs

Version: 1 Type: Tab 0 ratings
1 star 2 stars 3 stars 4 stars 5 stars
comments

Quicksand Tab

#----------------------------------PLEASE NOTE---------------------------------#
#This file is the author's own work and represents their interpretation of the #
#song. You may only use this file for private study, scholarship, or research. #
#------------------------------------------------------------------------------##
[ Tab from: http://www.guitartabs.cc/tabs/l/lit/quicksand_tab.html ]
"quicksand"___________________________(b)bend_____________________________________________________ intro:_____________________________verses:__________________________
--------:::::---------------------------------------::--------------------------------------
--17b--:::::---------------------------------------::--------------------------------------
--16b--:::::---------------------------------------::--------------------------------------
--------:::::--6-6-6-6--4-4-4-4--6-6-6--4-4-4--::--6-6-6-6-6-6-6--4-4-4--4-4-4-----
--------:::::--6-6-6-6--4-4-4-4--6-6-6--4-4-4--::--6-6-6-6-6-6-6--4-4-4--4-4-4-----
--------:::::--4-4-4-4--2-2-2-2--4-4-4--2-2-2--::--4-4-4-4-4-4-4--2-2-2--2-2-2-----

________________________________________________________________________________________________ __________interlude at 1:40_____________________________________________

----------------------------------------------------------------------------------------------
----------------------------------------------------------------------------------------------
----------------------------------------------------------------------------------------------
--4-4-4--5-5-5--7-7-7--9-9-9--------------------------------------------------------------
--4-4-4--5-5-5--7-7-7--9-9-9--------------------------------------------------------------
--2-2-2--3-3-3--5-5-5--7-7-7--------------------------------------------------------------
Comments