Lit - Over My Head Chords & Tabs

 

Over My Head Chords & Tabs

Lit Chords & Tabs

Version: 4 Type: Tab 0 ratings
1 star 2 stars 3 stars 4 stars 5 stars
comments

Over My Head Tab

От: for www.ultimate-guitar.com 
Кому: 
Тема: New Tabs
Дата: 7 июля 2000 г. 5:16

Lit,Over My Head.
 Tabbed by Murki,murki@yahoo.com.
  
"Over My Head" by Lit
Standard Tuning

Tabbed by MURKI (Miguel Angel Juárez López from Mexico)
murki@yahoo.com

Ok, this is the song that appears on the
Titan A.E. Soundtrack, it's a little messy
in some parts, but don't blame me , it's the
first tab I've done all by myself !!!
          
Intro x1
               
e|-------------------------------------------------------------------
B|-------------------------------------------------------------------
G|----7--7-----------------------------------------------------------
D|----7--7-------7-x-7-x-7-----5--5-----7-x-7-x-7-----5--5----7--7---
A|----5--5-------7-x-7-x-7-----5--5-----7-x-7-x-7-----5--5----7--7---
E|---------------5-x-5-x-5-----3--3-----5-x-5-x-5-----3--3----5--5---
          
Then this x2

e|-----------------------------------
B|-----------------------------------
G|---7----12-/-11-/-9-\-7-\-11-------
D|-----------------------------------
A|---5----10-/--9-/-7-\-5-\--9-------
E|-----------------------------------

Then this x1

e|----------------------
B|----------------------
G|----------------------
D|--2---4---5-----------
A|--2---4---5-----------
E|--0---2---3-----------

Verse 

x2      /----p.m.----\      /----p.m.----\
e|----------------------------------------------------
B|----------------------------------------------------
G|--7~------------------7~----------------------------
D|--7~--7--7--7--7--7---7~--7--7--7--7--7---2--4--5---
A|--5~--5--5--5--5--5---5~--5--5--5--5--5---2--4--5---
E|------------------------------------------0--2--3---

Post-verse thing
[ Tab from: http://www.guitartabs.cc/tabs/l/lit/over_my_head_tab_ver_4.html ]
x2
e|---------------------------------------------
B|---------------------------------------------
G|--7--7---7--7--------------------------------
D|--7--7---7--7---8--8---7---5------------------
A|--5--5---4--4---8--8---7---5------------------
E|----------------6--6---5---3------------------

x1
e|------------------------------
B|------------------------------
G|--7--7------------------------
D|--7--7---9--9---5--5---7--7---
A|--5--5---9--9---5--5---7--7---
E|---------7--7---3--3---5--5---

Chorus

e|------------------------------------------------------------------------
B|------------------------------------------------------------------------
G|----7--7----------------------------------------------------------------
D|----7--7-------7-x-7-x-7-----5--5-----7-x-7-x-7-----2--2--2---5--5--5---
A|----5--5-------7-x-7-x-7-----5--5-----7-x-7-x-7-----2--2--2---5--5--5---
E|---------------5-x-5-x-5-----3--3-----5-x-5-x-5-----0--0--0---3--3--3---

e|-------------------------------------------------------------------
B|-------------------------------------------------------------------
G|----7--7-----------------------------------------------------------
D|----7--7-------7-x-7-x-7-----5--5-----7-x-7-x-7-----5--5-----7~~---
A|----5--5-------7-x-7-x-7-----5--5-----7-x-7-x-7-----5--5-----7~~---
E|---------------5-x-5-x-5-----3--3-----5-x-5-x-5-----3--3-----5~~---

x2
e|-----------------------------------
B|-----------------------------------
G|---7~---12-/-11-/-9-\-7-\-11-------
D|-----------------------------------
A|---5~---10-/--9-/-7-\-5-\--9-------
E|-----------------------------------

Verse

Post-verse thing

Chorus

Break & Solo

Post-verse thing

Chorus (w/o distortion and then jumps into distortion)

Intro

Outro

x4
e|----------------------------------------------
B|----------------------------------------------
G|---9--9--9----4--4--4----6--6--6--------------
D|---9--9--9----4--4--4----6--6--6----7--7--7---
A|---7--7--7----2--2--2----4--4--4----7--7--7---
E|------------------------------------5--5--5---

Ends with

e|----------
B|----------
G|---9~~~---
D|---9~~~---
A|---7~~~---
E|----------

Well that's it, I would apreciate if someone out there
would help me with the solo. Any corrections or aditions
mail me at murki@yahoo.com 
:: Ultimate Guitar Archive :: 
http://www.ultimate-guitar.com 

Comments