Lit - Over My Head Chords & Tabs

 

Over My Head Chords & Tabs

Lit Chords & Tabs

Version: 3 Type: Tab 0 ratings
1 star 2 stars 3 stars 4 stars 5 stars
comments

Over My Head Tab

   
Name: arpeggio2

Tabs: Lit
"Over My Head" off of the Titan A.E. soundtrack

Intro (chorus)
---------------------------------------------
---------------------------------------------
-7--7----------------------------------------
-7--7--7x7x7--5--5--7x7x7--5--5--7x7x7-------
-5--5--7x7x7--5--5--7x7x7--5--5--7x7x7-------
-------5x5x5--3--3--5x5x5--3--3--5x5x5-------

Gtr #1 * Gtr #2
--------*-------------------------------------
--------*--8-7-5--5-7---2x--------------------
-7.....-*--------7----7-----then------------------
-7.....-*------------------------2-4-5-----------
-5.....-*------------------------2-4-5-----------
--------*------------------------0-2-3-----------

Verse
---------------------------------------------
---------------------------------------------
-7--------------------------------------------
-7------------------2-4-5-------2x-----------------
-5------------------2-4-5------------------------
--------------------0-2-3-----------------------
...................

Pre-chorus
---------------------------------------------
---7-----7-----7-----7---------------------------
-----7-----7-----7-----7-----------7--------------
--------------------------2x--then-7------5---------
-5-----4---------------------------5......5------------
-------------6-----5----------------------3....-----
[ Tab from: http://www.guitartabs.cc/tabs/l/lit/over_my_head_tab_ver_3.html ]
Chorus
---------------------------------------------------
----------------------------------------------------
-7--7-----------------------------------------------
-7--7--7x7x7--5--5--7x7x7--2-2--5-5--2x-------------
-5--5--7x7x7--5--5--7x7x7--2-2--5-5-----------------
-------5x5x5--3--3--5x5x5--0-0--3-3-----------------


Bridge(2x) then do the same thing in triplets and palm-muted
---------------------------------------------
-8-7-5---5-7--------------------------------------
-------7-----7---------------------------------
---------------------------------------------
---------------------------------------------
---------------------------------------------

Solo (b=bend r=release h=hammer on p=pull off)
-----------------------------------------------------9-10-9--------------
-8-7-5---5-7b8r7--8-7-5---5-7---7h8p7-----10-8-7------------12-10--5-7-9-
-------7----------------7-----7-------9-7--------9-7---------------------
-------------------------------------------------------------------------
-------------------------------------------------------------------------
-------------------------------------------------------------------------

Acoustic Part (same notes as chorus with these chords)
D A G Em G
D= X57755
A= 577555
G= 355433
Em= 022000

The last part (coda) of the song is just the chorus notes moved up 
two frets.

Intro
Verse
Pre-chorus
Chorus
Verse
Pre-chorus
Chorus
Bridge
Solo
Pre-chorus
Acoustic Chorus
Chorus
Coda

Comments