Lit - Over My Head Chords & Tabs

 

Over My Head Chords & Tabs

Lit Chords & Tabs

Version: 2 Type: Tab 1 rating
1 star 2 stars 3 stars 4 stars 5 stars
comments

Over My Head Tab

tabbed by: Chad Neidt
Lit: over my head


INTRO..."I'm in over my head"
e-------------------------------------------------------------------I
B-------------------------------------------------------------------I
G-------------------------------------------------------------------I
D-10-10-x-x--5-x-5-x-5--3-3-x-x--5-x-5-x-5--3-3--5-5-5-5-5----------I
A-10-10-x-x--5-x-5-x-5--3-3-x-x--5-x-5-x-5--3-3--5-5-5-5-5----------I
E-8--8--x-x--3-x-3-x-3--1-1-x-x--3-x-3-x-3--1-1--3-3-3-3-3----------I

then it goes...

e-------------------------------------------------------------------I
B-------------------------------------------------------------------I
G----10-9-7-5-7-9-5---10-9-7-5-7-9-5--------------------------------I
D--------------------------------------5-7-^9-----------------------I
A--------------------------------------5-7-^9-----------------------I
E--------------------------------------3-5-^7-----------------------I
[ Tab from: http://www.guitartabs.cc/tabs/l/lit/over_my_head_tab_ver_2.html ]
then the singing starts..."They wanna try and build me up..."

e-------------------------------------------------------------------I
B-------------------------------------------------------------------I
G------7-------------7----------------------------------------------I
D------7-------------7------------------5-7-^9----------------------I
A------5-5-5-5-5-5-5-5-5-5-5-5-5-5-5----5-7-^9----------------------I
E---------------------------------------3-5-^7----------------------I

then right before the chorus...

e-------------------------------------------------------------------I
B---------5-------------5-------------------------------------------I
G------5-----5-------5-----5----------------------------------------I
D-------------------------------------------------------------------I
A----3-------------3------------------------------------------------I
E-------------------------------------------------------------------I
Comments