Lit - Over My Head Chords & Tabs

 

Over My Head Chords & Tabs

Lit Chords & Tabs

Version: 2 Type: Bass Tab 0 ratings
1 star 2 stars 3 stars 4 stars 5 stars
comments

Over My Head Bass Tab

                            Lit- Over My Head
Tabbed by Scott Huber
Be sure to check out www.basstabarchive.net coming soon!!!
                                                          Drop D tuning.


        intro                                                           
G---||------------------------------------------------------------------
D---||------------------------------------------------------------------
A---||--------------5--5--0--0--0--0--0--------0--0--0--0--0------------
D---||-----------------------------------5--5-----------------5--5------
                                                                        

                    Pre-verse                                           
G---------------||------------------------------------------------------
D---------------||--5--5--4--4--2--2--0--0--2--2--4--4--0--0--5--5------
A---0--0--0--0--||------------------------------------------------------
D---------------||------------------------------------------------------
                                                                        

                                                                        
G---------------------------------------------------------||--||--------
D---4--4--2--2--0--2--2--4--4--0--0-----------------------||--||*-------
A---------------------------------------------------------||--||*-------
D------------------------------------0--3--5--5--5--5--5--||--||--------
                                                                        

    Verse                                                               
G-----------------------------------------------------------------------
D-----------------------------------------------------------------------
A---5--5--5--5--5--5--5--5--5--5--5--5--5--5--5--5--3h5--5--5--5--5-----
D-----------------------------------------------------------------------
                                                                        

                                            prechorus                   
G----------------------------------||--||-------------------------------
D---------------------------------*||--||*------------------------------
A---5--5--5--5--5--5--5-----------*||--||*--5--5--5--5--5--4--4--4------
D------------------------0--3--5---||--||-------------------------------
                                                                        

                                                                        
G----------------------------------------||-----------------4--6--4-----
D---------------------------------------*||--------4--5--7--------------
A---4--4--4--1--1--1--1--1--0--0--------*||--5--5-----------------------
D---------------------------------5--5---||-----------------------------
                                                                        

                                                        Chorus          
G---------------------------1--3--------2-----2-----||------------------
D---7--5--4-----------0--2-----------2-----2-----2--||------------------
A------------1--1--3--------------0-----------------||-----5--5--0------
D---------------------------------------------------||------------------
                                                                        

                                                                        
G-----------------------------------------------------------------------
D-----------------------------------------------------------------------
A---0--0--0--0--0--------0--0--0--0--------------------------0--4--5----
D------------------5--5--------------0--2--2--0--2--4--5--5-------------
                                                                        

                                                           pre-verse    
G------------------------------------------------------||---------------
D------------------------------------------------------||---------------
A---5--5--0--0--0--0--0--0--0--------0--0--0--------0--||---------------
D------------------------------5--5-----------5--5-----||---------------
                                                                        

              verse        Chorus   only play second part               
G---------||-----------||-----------------------------------------||----
D---------||-----------||-----------------------------------------||----
A---------||-----------||-----------------------------------------||----
D---------||-----------||-----------------------------------------||----
                                                                        
[ Tab from: http://www.guitartabs.cc/tabs/l/lit/over_my_head_btab_ver_2.html ]
                          bridge/solo                                   
G---------------------||------------------------------------------------
D---------------------||--0--5--5--4--4--2--2--0--0--2--2--4--4--0------
A---------------------||------------------------------------------------
D---0--(0)--(0)--(0)--||------------------------------------------------
                                                                        

                                                                        
G-----------------------------------------------------------------------
D---0--0--5--5--4--4--2--2--0--0--2--2--4--4--0--0----------------------
A---------------------------------------------------5--5--5--5--5--5----
D-----------------------------------------------------------------------
                                                                        

                                                                        
G-----------------------------------------------------------------------
D--------------------------------------------------------5h7--7--7------
A---5--5--5--5--5--5--5--5--5--5----------------------------------------
D---------------------------------0--3--5--0h1--1--1--1-----------------
                                                                        

                                       prechorus                        
G----------------------------------||-----------------||----------------
D---7----------------5h7--7--7--7--||-----------------||----------------
A----------------------------------||-----------------||----------------
D------0h1--1--1--1----------------||-----------------||----------------
                                                                        

    Guitar Chorus (first part)           play second part of chorus     
G------------------------------------||---------------------------------
D------------------------------------||---------------------------------
A------------------------------------||---------------------------------
D------------------------------------||---------------------------------
                                                                        

                 intro riff         key change                          
G------------||-----------------||--------------------------------------
D------------||-----------------||--2--2--2--2--------------------------
A------------||-----------------||--------------------------------------
D------------||-----------------||--------------------------------------
                                                                        

    play a few times with addlibing runs                                
G-----------------------------------------------------------------------
D---2--2-----------------------------------------2--2--2--2--2----------
A---------2--2--2--2--2--4--4--4--4--4--0--0--0-----------------2--2----
D-----------------------------------------------------------------------
                                                                        

                                                                        
G---------------------------------||--------------------------||--------
D---------------------------------||-----7--6--4-----4--6-----||--------
A---2--2--2--4--4--4--4--0--0--0--||--7-----------7--------7--||--------
D---------------------------------||--------------------------||--------
                                                                        



========================================================================
==                       TABLATURE EXPLANATION                        ==
========================================================================

----------                ----------                ----t---
----5h8--- Hammeron       ----(8)--- Ghost          ----6--- Tap
----------                ---------- Note           --------
----5p8--- Pulloff        ----------                --------

----------                ----------                -----p--
----5/8--- Slide Up       -----x---- Dead           -----7-- Pop
----------                ---------- Note           --s-----
----5\8--- Slide Down     ----------                --5----- Slap 

----------                ||------|| Repeat         --------
----5~~~-- Vibrato        ||*----*||                ---5^--- Bend
----------                ||*----*||                --------
----------                ||------||                --------

----------                ----------                --------
-4:------- Time           ----------                --------
-4:------- Signature      ----------                --------
----------                ----------                --------

Rhythm:
  w = whole note            W = dotted whole
  h = half note             H = dotted half
  q = quarter note          Q = dotted quarter
  e = eighth note           E = dotted eighth
  s = sixteenth note        S = dotted sixteenth
  t = 32nd note             T = dotted 32nd
  x = 64th note             X = dotted 64th
  ^ = triplet

========================================================================
==            Created with a demo version of BUCKET O' TAB            ==
==              tablature creation software for Windows               ==
==                  For more info email gse@his.com                   ==
========================================================================
Comments