Lit - No Big Thing Chords & Tabs

 

No Big Thing Chords & Tabs

Lit Chords & Tabs

Version: 5 Type: Tab 0 ratings
1 star 2 stars 3 stars 4 stars 5 stars
comments

No Big Thing Tab

   
Cool song, pretty easy.

No Big Thing
As performed on "A Place In The Sun"
Words and music by Jeremy Popoff

Drop D tuning
b      bend
r      return
\      slide down
~      vibrating
PM     palm muting

Intro (w/ distortion, x4)
e[--------------------------------------------
B[--------------------------------------------
G[-4--4-4-4-----------------------------------
D[-4--4-4-4--4--4-4-4--2-2--2-2-2-2-2---------
A[-2--2-2-2--4--4-4-4--2-2--2-2-2-2-2---------
D[-----------4--4-4-4--2-2--2-2-2-2-2---------

Intro part 2 (During 3rd time of 1st Intro part)
e[------------------------------------------------------------
B[------------------------------------------------------------
G[------------------------------------------------------------
D[-14\--9--9-9--9-9--9--9-9--9-9--9--9-9--9-9--9--9-9--8-8-8--
A[-14\--------------------------------------------------------
D[-14\--------------------------------------------------------

Main Riff (w/ distortion, x4)
e[-------------------------------
B[-------------------------------
G[-------------------------------
D[-1--4-----1--7-6---------------
A[-1--4-----1--7-6---------------
D[-1--4-----1--7-6---------------

Verse (w/ distortion, x2, play Main Riff after each time)
e[--------------------------------
B[--------------------------------
G[--------------------------------
D[---------------------------4----
A[---------------------------4----
D[-4-4-4-4-4-4-4-4-4-4-4-4-4-4----
  PM........................  
[ Tab from: http://www.guitartabs.cc/tabs/l/lit/no_big_thing_tab_ver_5.html ]
Chorus (w/ distortion, x4)
e[--------------------------------------------
B[--------------------------------------------
G[-4--4---------------------------------------
D[-4--4--4--4--2--2---------------------------
A[-2--2--4--4--2--2---------------------------
D[-------4--4--2--2---------------------------

Main riff (x2)

Verse

Chorus

GUITAR SOLO
e[----------------------------------------------------------
B[----7-----7----------------7-----7b9~~~-7b9-7b9--9r7~~~---
G[-4~~--4-3---3-1~~~------4~~--4-3--------------------------
D[-------------------4~~~-----------------------------------
A[----------------------------------------------------------
D[----------------------------------------------------------

e[---------------------------------------------------------------
B[-7-7-7-7-5-5-5-5-4-4-4-4-2-2-2-2-------------------------------
G[---------------------------------4-4-4-4-6-4-6b8r6-4-3-4-4-4-4-
D[---------------------------------------------------------------
A[---------------------------------------------------------------
D[---------------------------------------------------------------

e[--------------------------------------------
B[--------------------------------------------
G[-3-3-3-3------------------------------------
D[---------6-6-6-6-4-4-4-4-2-2-2-2~~~~~-------
A[--------------------------------------------
D[--------------------------------------------

Chorus

Ending
e[--------------------------------------------
B[--------------------------------------------
G[-4~~~~~~~-----4\----------------------------
D[-4~~~~~~~--4--4\----------------------------
A[-2~~~~~~~--4--2\----------------------------
D[-----------4--------------------------------

That's it

Song Structure
Intro
Intro 2
Main Riff
Verse
Main Riff
Verse
Chorus
Main Riff
Verse
Main Riff
Verse
Main Riff
Chorus
GUITAR SOLO
Chorus
Ending

Peace.
Comments