Lit - No Big Thing Chords & Tabs

 

No Big Thing Chords & Tabs

Lit Chords & Tabs

Version: 4 Type: Tab 0 ratings
1 star 2 stars 3 stars 4 stars 5 stars
comments

No Big Thing Tab

Lit,  No Big Thing
Sarah, BusfaceIM@aol.com
Song: "No Big Thing"
By: Lit
Album: A Place In The Sun
Tabbed By: Sarah S.  (BusfaceIM@aol.com)
Date: 11/6/99
Tuning: Drop "D"

This song is really easy to play.  It is kinda fast.  Turn on the distortion pedal for this song!!!!  I wanna try something... so if you get time... could you send me an e-mail telling me that you saw my tab... I am curious as to how many people actually will look at this... tell me what you think of it!!!

Intro:
e]--------------------------
B]--------------------------
G]--------------------------
D]---9(6x)--4(6x)--2(12x)---
A]---9------4------2--------
D]---9------4------2--------
play 4 times...then:

e]-----------------------------------
B]-----------------------------------
G]-----------------------------------
D]---9(24x)--------9-9------9(18x)---
A]-----------8-8-8-----9-9--9--------
D]--------------------------9--------


[ Tab from: http://www.guitartabs.cc/tabs/l/lit/no_big_thing_tab_ver_4.html ]
Verse:
e]----------------------------
B]---------------------------- 
G]---------------------------- 
D]---1-1--4(4x)--7-7--6(4x)---    
A]---1-1--4------7-7--6-------
D]---1-1--4------7-7--6-------

Play twice... then add this, except for the first
time the verse is played... in that case, play the
verse 4 times before adding the x's.
e]------------
B]------------
G]------------
D]---x(15x)---
A]---x--------
D]---x--------


Chorus:
e]--------------------------
B]--------------------------
G]--------------------------
D]---9(3x)--4(3x)--2(12x)---
A]---9------4------2--------
D]---9------4------2 -------


Ending:
e]--------------
B]--------------
G]--------------
D]---9--7--5/---
A]---9--7--5/---
D]---9--7--5/---


Structure:
Intro-- 4x (0:04)
Verse-- (0:23)
Chorus-- 4x (0:48)
Verse-- (1:07)
Chorus-- 4x (1:28)
Solo-- I HAVE NO CLUE HOW TO PLAY THIS! (1:47)
Chorus-- 4x (2:06)
END-- (2:26)



Comments