Lit - No Big Thing Chords & Tabs

 

No Big Thing Chords & Tabs

Lit Chords & Tabs

Version: 2 Type: Bass Tab 0 ratings
1 star 2 stars 3 stars 4 stars 5 stars
comments

No Big Thing Bass Tab

   
song: no big thing
Artist: Lit
Album: a place in the sun
tabbed by greg.difranco@verizon.net

this is my first bass tab, but it is really easy to play, cause it is almost the 

the same thing over and over


Intro		  repeat 3x
G|-----|---------------------------------|
D|-----|---------------------------------|
A|-----|-3-3-333-------------------------|
E|-1---|---------3-3-333-111-111-111-111-|
play till
guitar changes

G|----------------------------------------------|
D|----------------------------------------------|
A|-3--3-----------------------------------------|
E|------3--3-11-11-11-11-1-1-11-11-11-11-1-1-0x-|

G|---------------------------------|
D|---------------------------------|
A|---------------------------------|
E|-3-3-333-1-1-111-3-3-333-1-1-111-|

verse 
G|---------------------------------|
D|---------------------------------|
A|-3-3-333---------1-1-111-0-0-000-|
E|---------3-3-333-----------------|

G|---------------------------------|
D|---------------------------------|
A|---------------------------------|
E|-3-3-333-1-1-111-3-3-333-1-1-111-|
[ Tab from: http://www.guitartabs.cc/tabs/l/lit/no_big_thing_btab_ver_2.html ]
G|---------------------------------|
D|---------------------------------|
A|-3-3-333---------1-1-111-0-0-000-|
E|---------3-3-333-----------------|

G|---------------------------------|
D|---------------------------------|
A|---------------------------------|
E|-3-3-333-1-1-111-3-3-333-1-1-111-|

Chorus 
repeat 3x
G|-----------------------------|
D|-----------------------------|
A|-3--3------------------------|
E|-------3--3--111-111-111-111-|

G|----------------------------------------------|
D|----------------------------------------------|
A|-3--3-----------------------------------------|
E|------3--3-11-11-11-11-1-1-11-11-11-11-1-1-0x-|


play verse again
play chorus again

    guitar solo        play 3x
G|---------------------------------|
D|---------------------------------|
A|-3-3-333-------------------------|
E|---------3-3-333-111-111-111-111-|

G|-----------------------------------------------------|
D|-----------------------------------------------------|
A|-3-3-333---------------------------------------------|
E|---------3-3-333-1-11-11-11-11-1-1-1-11-11-11-11-1-1-|


play chorus

ending

G|-------|
D|-------|
A|-----3-|
E|-3-----|








Comments