Lit - My Own Worst Enemy Chords & Tabs

 

My Own Worst Enemy Chords & Tabs

Lit Chords & Tabs

Version: 4 Type: Tab 0 ratings
1 star 2 stars 3 stars 4 stars 5 stars
comments

My Own Worst Enemy Tab

   
X===============================PLEASE NOTE==============================X
X  This tab is all my own and represents my interpretation of the song.  X
X You may only use this tab for private study, scholarship, or research. X
X  Do not change, deface, mutilate, or in any other way alter this tab.  X
X   You must email me first if you want to use this tab on your site.    X
X========================================================================X


*My Own Worst Enemy*
Transcribed by Obscured@san.rr.com
Http://home.san.rr.com/obscured


Tuning: E A D G B E


INTRO
|------------------------------------|
|------------------------------------|
|-8/9-9-9-9-9-9-9-9-8/9-9-9-9-9------|
|-------------------------------9\7--|
|-6/7-7-7-7-7-7-7-7-6/7-7-7-7-7-9\7--|
|-------------------------------7\5--|


VERSE
|---------------------------------|
|---------------------------------|
|---------------------------------|
|-2-2---2-2-2---2-2-2---2-2--9\7--|
|-2-2---2-2-2---2-2-2---2-2--9\7--|
|-0-0---0-0-0---0-0-0---0-0--7\5--|


CHORUS
|---------------------|
|---------------------|
|-----------2----4----|
|-2----4----2----4----|
|-2----4----0----2----|
|-0----2--------------|


BRIDGE - Play intro


VERSE 2 - Same


CHORUS 2 - Same


BRIDGE 2
[ Tab from: http://www.guitartabs.cc/tabs/l/lit/my_own_worst_enemy_tab_ver_4.html ]
                                      x2
|---------------------------------------|
|---------------------------------------|
|-8/9-9-9-9-9-9-9-9-8/9-9-9-9-9-11--11--|
|---------------------------------------|
|-6/7-7-7-7-7-7-7-7-6/7-7-7-7-7-9---9---|
|---------------------------------------|

|---------------------------------------------------|
|---------------------------------------------------|
|-11/13-13-13-13-13-13-13-13-13-13-13-13-13-14--14--|
|---------------------------------------------------|
|-9-/11-11-11-11-11-11-11-11-11-11-11-11-11-12--12--|
|---------------------------------------------------|

|-------------------------------------------------------------------------------------------------|
|-------------------------------------------------------------------------------------------------|
|-14/16-16-16-16/18-18-18-18\16-16-16-16\14-14-14-14\13-13-13-13/14-14-14-14\13-13-13-13\11-11-11-|
|-------------------------------------------------------------------------------------------------|
|-12/14-14-14-14/16-16-16-16\14-14-14-14\12-12-12-12\11-11-11-11/12-12-12-12\11-11-11-11\9--9--9--|
|-------------------------------------------------------------------------------------------------|


CHORUS 3 - Same

End on                             x2
|------------------------------------|
|------------------------------------|
|-8/9-9-9-9-9-9-9-9-8/9-9-9-9-9------|
|-------------------------------9\7--|
|-6/7-7-7-7-7-7-7-7-6/7-7-7-7-7-9\7--|
|-------------------------------7\5--|
Comments