Lit - My Own Worst Enemy Chords & Tabs

 

My Own Worst Enemy Chords & Tabs

Lit Chords & Tabs

Version: 3 Type: Tab 2 ratings
1 star 2 stars 3 stars 4 stars 5 stars
comments

My Own Worst Enemy Tab

   
#----------------------------------PLEASE NOTE---------------------------------#
#This file is the author's own work and represents their interpretation of the #
#song. You may only use this file for private study, scholarship, or research. #
#------------------------------------------------------------------------------##

Artist: Lit  Title: My Own Worst Enemy
A simple song, everything should be right. Questions, comments email me
at pmorrissey03@snet.net
Intro: (Guitar 1)
e--------------|--------------|--------------|---------|----------------
B--------------|--------------|--------------|---------|----------------
G-8\9--9--9--9-|-8\9--9--9--9-|-8\9--9--9--9-|---------|----------------
D-8\9--9--9--9-|-8\9--9--9--9-|-8\9--9--9--9-|-9----7--|----------------
A-6\7--7--7--7-|-6\7--7--7--7-|-6\7--7--7--7-|-9----7--|----------------
E--------------|--------------|--------------|-7----5--|----------------
Intro: (Guitar 2) Enter thrid time
e--------------|--------------|--------------|---------|----------------
B--------------|--------------|--------------|---------|----------------
G--------------|--------------|--------------|---------|----------------
D-2--2--x------|-2--2--x------|-2--2--x------|-9----7--|----------------
A-2--2--x------|-2--2--x------|-2--2--x------|-9----7--|----------------
E-0--0--x------|-0--0--x------|-0--0--x------|-7----5--|----------------
[ Tab from: http://www.guitartabs.cc/tabs/l/lit/my_own_worst_enemy_tab_ver_3.html ]
Verse - Play Guitar 2 intro 4 times
Chorus (Guitar 2) Figure Out Rhythm On Your Own 
   E                       F#                      A               
Chorus (Guitar 1)
e-------------------------|-----------------------|---------------------
B-------------------------|-----------------------|---------------------
G--9--9--9--9--9--9--9--9-|9--9--9--9--9--9--9--9-|9--9--9--9--9--9--9--
D-------------------------|-----------------------|---------------------
A-------------------------|-----------------------|---------------------
E-------------------------|-----------------------|---------------------
         B    
e-------|------------------------|--------------------------------------
B-------|------------------------|--------------------------------------
G--9--9\|11-11\-14-14-14\-16-16//|--------------------------------------
D-------|------------------------|--------------------------------------
A-------|------------------------|--------------------------------------
E-------|------------------------|--------------------------------------
Solo: (Guitar 1) (Guitar 2 Chords Above)
  E                                   B  A          E
e-----------|-----------|-----------|-------------|-------------|-------
B-----------|-----------|-----------|-------------|-------------|-------
G.8\9--9--9-|-8\9--9--9-|-8\9--9--9-|-11-11------.|-13-13-13-13-|-------
D.8\9--9--9-|-8\9--9--9-|-8\9--9--9-|-11-11------.|-13-13-13-13-|-------
A-6\7--7--7-|-6\7--7--7-|-6\7--7--7-|-9--9--------|-11-11-11-11-|-------
E-----------|-----------|-----------|-------------|-------------|-------
                              B  A          E
e-------------|-------------|-------------|-------------------------|---
B-------------|-------------|-------------|-------------------------|---
G-13-13-13-13-|-13-13-13-13-|-14-14-------|-13-13\14-14\16-16\18-18-|---
D-13-13-13-13-|-13-13-13-13-|-14-14-------|-------------------------|---
A-11-11-11-11-|-11-11-11-11-|-12-12-------|-11-11\12-12\14-14\16-16-|---
E-------------|-------------|-------------|-------------------------|---
                                         Fill Before Chorus (Guitar 1)
e--------------------------------------|--------------------------------
B--------------------------------------|-H----H----H----H---------------
G-/16-16/14-14/13-13\14-14/13-13/11-11-|-9----9----9----9---------------
D--------------------------------------|--------------------------------
A-/14-14/12-12/11-11\12-12/11-11/-9--9-|--------------------------------
E--------------------------------------|--------------------------------
Key                                     Chords
H  Harmonic                             E 022xxx        B  799xxx
\  Slide Up    /Slide Down    A 577xxx    F# 244xxx
Comments