Lit - My Own Worst Enemy Chords & Tabs

 

My Own Worst Enemy Chords & Tabs

Lit Chords & Tabs

Version: 2 Type: Tab 0 ratings
1 star 2 stars 3 stars 4 stars 5 stars
comments

My Own Worst Enemy Tab

   
Lit 
My Own Worst Enemy
Tabbed by Jeff (bronchojeff@hotmail.com)


Guitar 1
------------------------------------------------------------
------------------------------------------------------------
-8\9--9--9--9--9--9--9--9--8\9--9--9--9--9--------------
-8\9--9--9--9--9--9--9--9--8\9--9--9--9--9--9--7----(4x)
-6\7--7--7--7--7--7--7--7--6\7--7--7--7--7--9--7--------
------------------------------------------------7--7--------

Guitar 2  (enter third time)                                                       
-------------------------------------------------------------
-------------------------------------------------------------
-------------------------------------------------------------
-2--2--2--2-9--7--------------------------------------------
-2--2--2--2-9--7---(6x)-----(4 of the 6x are during the verse--repeat 4x every verse)
-0--0--0--0-7--5--------------------------------------------


Chorus

Chords: E  (022xxx) x8
             F#(244xxx) x8
             A  (577xxx) x8
             B  (799xxx) x8
After the chorus go straight into the intro. Play the guitar 1 part twice and the 
Guitar 2 part 6 times.


Solo
[ Tab from: http://www.guitartabs.cc/tabs/l/lit/my_own_worst_enemy_tab_ver_2.html ]
------------------------------------------------------------
------------------------------------------------------------
-8\9--9--9--9--9--9--9--9--8\9--9--9--9--9---9---9--------
-8\9--9--9--9--9--9--9--9--8\9--9--9--9--9---9---9----(2x)
-6\7--7--7--7--7--7--7--7--6\7--7--7--7--7---11--11--------
-----------------------------------------------------------------

--------------------------------------------------------------
--------------------------------------------------------------
-13--13--13--13-13-13-13-13-13-13-13-13-13--14--14--
-13--13--13--13-13-13-13-13-13-13-13-13-13--14--14--
-11--11--11--11-11-11-11-11-11-11-11-11-11--12--12--
---------------------------------------------------------------


---------------------------------------------------------------
---------------------------------------------------------------
-16--16--18--18--16--16--14--14--13--13--14--14--11-11
-16--16--18--18--16--16--14--14--13--13--14--14--11-11
-14--14--16--16--14--14--12--12--11--11--12--12--9---9
---------------------------------------------------------------


That's about it. Just put all of those parts together by listening to the song
and I'm pretty sure that it's perfect. This is only my second song to tab and
I've only been playing for 2 and 1/2 months so if you have any suggestions
then just drop me an e mail.
Comments