Lit - My Own Worst Enemy Chords & Tabs

 

My Own Worst Enemy Chords & Tabs

Lit Chords & Tabs

Version: 11 Type: Tab 0 ratings
1 star 2 stars 3 stars 4 stars 5 stars
comments

My Own Worst Enemy Tab

Heres a reeeely eeezzzy way to play this reely kool song.

E------------------------------------------------------------------
B------------------------------------------------------------------
G------------------------2------------------------2----------------
D-1 2222222--1 22222 --4-2----1 22222222 122222 4-2----------------
A----------------------2-0----------------------2-0----------------
D------------------------------------------------------------------

E------------------------------------------------------------------
B------------------------------------------------------------------
G------------------------2------------------------2----------------
D-1-2222222--1-22222--4-2----1-22222222 122222- 4-2----------------
A----------------------2-0----------------------2-0----------------
D------------------------------------------------------------------


E------------------------------------------------------------------
B------------------------------------------------------------------
G-2-2---222--222----2----------------------------------------------X4
D-2-2---222--222--4-2----------------------------------------------
A-2-2---222--222--2-0----------------------------------------------
D------------------------------------------------------------------


E------------------------------------------------------------------
B------------------------------------------------------------------
G--2-2-2-2-2-2-2-2-4-4-4-4-4-4-4-4-2-2-2-2-2-2-2-2-4-4-4-4-4-4-4-4-
D--2-2-2-2-2-2-2-2-4-4-4-4-4-4-4-4-2-2-2-2-2-2-2-2-4-4-4-4-4-4-4-4-X2
A--2-2-2-2-2-2-2-2-4-4-4-4-4-4-4-4-0-0-0-0-0-0-0-0-2-2-2-2-2-2-2-2-
D------------------------------------------------------------------

E------------------------------------------------------------------
B------------------------------------------------------------------
G------------------------2------------------------2----------------
D-1 2222222--1 22222 --4-2----1 22222222 122222 4-2----------------X2
A----------------------2-0----------------------2-0----------------
D------------------------------------------------------------------
[ Tab from: http://www.guitartabs.cc/tabs/l/lit/my_own_worst_enemy_tab_ver_11.html ]
E------------------------------------------------------------------
B------------------------------------------------------------------
G-2-2---222--222----2----------------------------------------------X4
D-2-2---222--222--4-2----------------------------------------------
A-2-2---222--222--2-0----------------------------------------------
D------------------------------------------------------------------


E------------------------------------------------------------------
B------------------------------------------------------------------
G--2-2-2-2-2-2-2-2-4-4-4-4-4-4-4-4-2-2-2-2-2-2-2-2-4-4-4-4-4-4-4-4-
D--2-2-2-2-2-2-2-2-4-4-4-4-4-4-4-4-2-2-2-2-2-2-2-2-4-4-4-4-4-4-4-4-X2
A--2-2-2-2-2-2-2-2-4-4-4-4-4-4-4-4-0-0-0-0-0-0-0-0-2-2-2-2-2-2-2-2-
D------------------------------------------------------------------


E------------------------------------------------------------------
B------------------------------------------------------------------
G------------------------------------------------------------------
D-1-2222222--1 22222-4-4-1-2222222--1 22222-4-4--------------------
A------------------------------------------------------------------
D------------------------------------------------------------------


E-2-44444444-4444455--67777999977775555444455554444222-------------
B------------------------------------------------------------------
G------------------------------------------------------------------
D------------------------------------------------------------------
A------------------------------------------------------------------
D------------------------------------------------------------------

E------------------------------------------------------------------
B------------------------------------------------------------------
G--2-2-2-2-2-2-2-2-4-4-4-4-4-4-4-4-2-2-2-2-2-2-2-2-4-4-4-4-4-4-4-4-
D--2-2-2-2-2-2-2-2-4-4-4-4-4-4-4-4-2-2-2-2-2-2-2-2-4-4-4-4-4-4-4-4-X2
A--2-2-2-2-2-2-2-2-4-4-4-4-4-4-4-4-0-0-0-0-0-0-0-0-2-2-2-2-2-2-2-2-
D------------------------------------------------------------------

E------------------------------------------------------------------
B------------------------------------------------------------------
G------------------------2------------------------2----------------
D-1 2222222--1 22222 --4-2----1 22222222 122222 4-2----------------
A----------------------2-0----------------------2-0----------------
D------------------------------------------------------------------
Comments