Lit - Miserable Chords & Tabs

 

Miserable Chords & Tabs

Lit Chords & Tabs

Version: 8 Type: Tab 0 ratings
1 star 2 stars 3 stars 4 stars 5 stars
comments

Miserable Tab

   
#----------------------------------PLEASE NOTE--------------------------------#
#This file is the author's own work and represents their interpretation of the#
#song. You may only use this file for private study, scholarship, or research.#
#-----------------------------------------------------------------------------#
#-- File created with Instab - http://www.pconline.com/~smcarey/instab.html --#
#-----------------------------------------------------------------------------#

Author/Artist: Lit
Title: Miserable
Album: A Place in the Sun
Transcribed by: James McAllister II
Email: jmcallister_ii@hotmail.com

SONG REQUIREMENTS:
Tune down one half step EbAbDbGbBbEb
4/4 time signature
Tempo: 84
Guitar 1 (G1): slight distortion
Guitar 2 (G2): distortion
Guitar 3 (G3): distortion with wah and tremolo effect

INTRO:
  G1 plays Part 1 three times with ending 1
VERSE 1:
  G2 plays Part 2 three times
PRE-CHORUS 1:
  G2 plays Part 3
VERSE 2:
  G2 plays Part 2 twice
PRE-CHORUS 2:
  G2 plays Part 3
CHORUS 1:
  G2 plays Part 1 three times with ending 2
SOLO:
  G3 plays Part 4
PRE-CHORUS 3:
  G2 plays Part 3
BREAK:
  G1 plays Part 1 three times with ending 1
CHORUS 2:
  G2 plays Part 1 five times with ending 2
All backing chords are under the staff

LYRICS:
  INTRO:
You make me come, You make me complete, You make me completely miserable.
  VERSE 1:
Stuck to a chair, watchin' this story about me
Everything goes by so fast, making my head spin
Used up all of my friends but who needs them, when you mean everything
  PRE-CHORUS 1:
I love the things that we should fear
Im not afraid of being here
So much the same it makes me helpless alone
  VERSE 2:
Nothing to share why should I care if you're near me
Give up all of my plans, but who needs them when you mean everything
  PRE-CHORUS 2:
Same as Pre-chorus 1
  CHORUS 1:
Same as Intro
  SOLO
  PRE-CHORUS 3:
Same as Pre-chorus 1
  BREAK & CHORUS 2:
Same as Intro (repeat)

HAVE AT IT!!!

-||---------------|-----------3------|---------|-----------||-----------------
-||*--------------|-----------3-----*|---------|-----------||-----------------
-||--8-8-\-3-3-xx-|-2-2-x-x-0---0----|-8-------|-8-x--5----||-----------------
-||--8-8-\-3-3-xx-|-3-3-x-x-0-----0--|-8-------|-8-x--5----||-----------------
-||*-6-6-\-1-1-xx-|-3-3-x-x-2-------*|-6-------|-6-x--3----||-----------------
-||---------------|-1-1-x-x-3--------|---------|-----------||-----------------
   Part 1                             Ending 1    Ending 2                    
[ Tab from: http://www.guitartabs.cc/tabs/l/lit/miserable_tab_ver_8.html ]
-||---------------|----------------|----------------|-----------------||------
-||---------------|----------------|----------------|-----------------||------
-||-7---7---7---7-|-7---7---7---7xx|----------------|-----------------||------
-||-7---7---7---7-|-7---7---7---7xx|5-5-5-5-5-5-5-5-|-5-5-5-5-5-5-5-5-||------
-||-6---6---6---6-|-6---6---6---6xx|5-5-5-5-5-5-5-5-|-5-5-5-5-5-5-5-5-||------
-||-6---6---6---6-|-6---6---6---6xx|3-3-3-3-3-3-3-3-|-3-3-3-3-3-3-3-3-||------
   Part 2                                                                     

-||-------|------------|-------|------------|--------|-------|-------------|--
-||-------|------------|-------|------------|--------|-------|-------------|--
-||-8-8---|-3-3-2b3r2-0|-8-8---|-3-3-2b3r2-0|-8-8----|-3-3---|-2b3r2-2b3r2-|--
-||-8-8---|-3-3--------|-8-8---|-3-3--------|-8-8----|-3-3---|-------------|--
-||-6-6---|-1-1--------|-6-6---|-1-1--------|-6-6----|-1-1---|-------------|--
-||-------|------------|-------|------------|--------|-------|-------------|--
  Part 3    A#           D#      A#           D#       A#     D               

-------------||------||-------------------|----------------------18-17-|------
-------------||------||-15-15-13-15-13-15-|-15-15-15/18-18-18-15-------|------
-2b3r2-2b3r2-||------||-------------------|----------------------------|------
-------------||------||-------------------|----------------------------|------
-------------||------||-------------------|----------------------------|------
-------------||------||-------------------|----------------------------|------
 D                     Part 4                                                 

-----------18-17|-17-17-17-17-17-17|------------------|-----------------------
--18-18-15------|------------------|-15-15-13-15-13-15|-15-15-15/18-18-18-15--
----------------|------------------|------------------|-----------------------
----------------|------------------|------------------|-----------------------
----------------|------------------|------------------|-----------------------
----------------|------------------|------------------|-----------------------
                                                                              

-18-17|----------18b20|-20-20-20-20-20||--------------------------------------
------|-18-18-15------|---------------||--------------------------------------
------|---------------|---------------||--------------------------------------
------|---------------|---------------||--------------------------------------
------|---------------|---------------||--------------------------------------
------|---------------|---------------||--------------------------------------
                                                                              

Comments