Lit - Miserable Chords & Tabs

 

Miserable Chords & Tabs

Lit Chords & Tabs

Version: 7 Type: Tab 0 ratings
1 star 2 stars 3 stars 4 stars 5 stars
comments

Miserable Tab

   
Song - Miserable
Artist - LIT
Tabbed by - Steel Picker


This is the song Miserable, by Lit. It wasn't very hard to figure this song out, also it's pretty simple to play. I added a little Guitar part into the Chorus, it sounds pretty cool. Tune your Guitar to standard tuning. 
         _________________________________________            _________________________
        |                            1st. Ending...repeat 2x                    |         |                  3rd Time only          |   E-------------------------------------------------------------------------|------------------------------------------
A-------------------------------------------------------------------------|------------------------------------------
D------------------------------------------------------------------6-----|------------------------------------------
G-----12-------12/--------7------7/--------2-----2-----2-------6-----|-------------------9---------------------
B-----12-------12/--------7------7/--------2-----2-----2-------4-----|-------------------9---------------------
E-----10-------10/--------5------5/--------0-----0-----0--------------|-------------------7---------------------
		Mp

                                                                    ____________
                                                                    |          x4         |
E------------------------------------------------------------------------------------------------------------------
A------------------------------------------------------------------------------------------------------------------
D------------------------------------------------------------------------------------------------------------------
G---------------------------------------------------4----4---4---4------------------------------------------------
B----5----5----5----5----5----5----5----5-------4----4---4---4------------------------------------------------
E----6----6----6----6----6----6----6----6-------2----2---2---2-------------------------------------------------
	Verse..............f


..This is a little Guitar thing I added into the Chorus..

E------2-----2-----2-----2------2-----2p----0-----0------4\--5------4-------2-----2---2----2----2-----------
A-------------------------------------------------------------------------------------------------------------------
D-------------------------------------------------------------------------------------------------------------------
G-------------------------------------------------------------------------------------------------------------------
B-------------------------------------------------------------------------------------------------------------------
E-------------------------------------------------------------------------------------------------------------------
                     f

[ Tab from: http://www.guitartabs.cc/tabs/l/lit/miserable_tab_ver_7.html ]
E-----0------0------0--0--0-----1----1-----1-----1----1----1----1-----1---1-----1----1----1-----------------
A---------------------------------2----2-----2-----2----2----2----2-----2---2-----2----2----2-----------------
D--------------------------------------------------------------------1-----1---1-----1----1----1-----------------
G-------------------------------------------------------------------------------------------------------------------
B-------------------------------------------------------------------------------------------------------------------
E-------------------------------------------------------------------------------------------------------------------
                                       Cres.   ff






This is the Guitar Solo, I made it so you won't have to shift so often, making it a lot easier to play nice and clearly if you're a beginner. 

E-----9------9----------------9----9-----9-----9------12----9--------17-----16-------9-------12-------------
A--------------------12--------------------------------------------------------------------------------------------
D-------------------------------------------------------------------------------------------------------------------
G-------------------------------------------------------------------------------------------------------------------
B-------------------------------------------------------------------------------------------------------------------
E-------------------------------------------------------------------------------------------------------------------
               f


E------9---------17-------16-----16/9-------9------9------------9----9----9-------9---12----9---------------
A------------------------------------------------------------12----------------------------------------------------
D-------------------------------------------------------------------------------------------------------------------
G-------------------------------------------------------------------------------------------------------------------
B-------------------------------------------------------------------------------------------------------------------
E-------------------------------------------------------------------------------------------------------------------

E---------17-----16-----9---12----9-------17\18----------------------------------------------------------------
A-------------------------------------------------------------------------------------------------------------------
D-------------------------------------------------------------------------------------------------------------------
G-------------------------------------------------------------------------------------------------------------------
B-------------------------------------------------------------------------------------------------------------------
E-------------------------------------------------------------------------------------------------------------------

	Note : On the end of the Guitar Solo, after hitting the 17th fret for the last time, just climb up the frets as you pick the string, and then continue back into the chorus.
	

	That's basically it, the Intro is actually the chorus, just played louder, and more firmly. Happy plucking! That was my first tab, so I will be making more, and the will be as accurate as possible, considering there are many tabs out there that don't sound anything like the song.
				-----------Steel Picker------------


Comments