Lit - Miserable Chords & Tabs

 

Miserable Chords & Tabs

Lit Chords & Tabs

Version: 5 Type: Tab 0 ratings
1 star 2 stars 3 stars 4 stars 5 stars
comments

Miserable Tab

person: eeĆn 
song: Miserable 
artist: Lit 
tab: This is a cool song by Lit, and is their latest single from their album 
"A Place In The Sun". All this stuff is correct as far as I know. There are 
some big bends in here so dont break too many strings! Email any q's or 
comments to DaMuZikBoi@aol.com! Enjoy! 

^ - Half Bend 
+ - Whole Bend 
~ - Tremolo 

**STANDARD TUNING** 
~BUT~ 
~If you want to play with the CD track, you'll have to tune all strings on 
both guitars down to 436hz (Almost a quarter step down).~ 

Intro 3x (light dist.): (end chord 3rd time) 
e--x--x--x-x-x-x--x--x---2---|--x-- 
B--x--x--x-x-x-x--x--x---2---|--x-- 
G--x--x--x-x-x-x--x--x---2---|--7-- 
D--12-12/7-7/2-2--4--4-------|--7-- 
A--12-12/7-7/2-2--4--4-------|--5-- 
E--10-10/5-5/0-0--2--2-------|--x-- 
You make me come... 
You make me complete... 
You make me completely miserable... 

Verse 3x (full dist.): 
e--x-x-x-x---x-x-x-x-x-x-x-x--- 
B--4-4-4-4---x-x-x-x-x-x-x-x--- 
G--6-6-6-6---x-x-x-x-x-x-x-x--- 
D--7-7-7-7---4-4-4-4-4-4-4-4--- 
A--4-4-4-4---4-4-4-4-4-4-4-4--- 
E--5-5-5-5---2-2-2-2-2-2-2-2--- 
Stuck to a chair, watchin this story about me 
Everything goes by so fast, makin my head spin 
Used up all of my friends, but who needs them? 
When you need everything 

Pre-Chorus x3: 
Fill 1 (1&2) 
e---x-x-x-x--x-x--x-x------------------------ 
B---x-x-x-x--x-x--x-x------------------------ 
G---7-7-7-7--x-x--6-6------------------------ 
D---7-7-7-7--7-7--6-6---palm mute last chord- 
A---5-5-5-5--7-7--4-4-------last time-------- 
E---x-x-x-x--5-5--x-x------------------------ 
[ Tab from: http://www.guitartabs.cc/tabs/l/lit/miserable_tab_ver_5.html ]
Fill 1: 
e------------------ 
B--bend and come--- 
G----back down----- 
D---6^---7~-------- 
A------------------ 
E------------------ 
I love the things that we should fear 
I'm not afraid of being here 
So much was said, it makes me helpless 
Oh yeah 

Verse x3: 
Nothing to share 
Why should I care if you're near me 
Give up all of my plans 
But who needs them? When you need everything 

Pre-Chorus x3 

Chorus x3: (end chord 3rd time) 
e---x-x--x-x--x-x--x-x---|--x-- 
B---x-x--x-x--x-x--x-x---|--x-- 
G---5-5--x-x--x-x--x-x---|--x-- 
D---5-5--5-5--2-2--4-4---|--9-- 
A---7-7--5-5--2-2--4-4---|--9-- 
E---x-x--7-7--0-0--2-2---|--7-- 
You make me come... 
You make me complete... 
You make me completely miserable... 

Solo (dist. w/auto wah): 
e----------------------------17-16----------17-16/-- 
B--14-14-12-14--14\17-17-14--------17-17-14--------- 
G--------------------------------------------------- 
D--------------------------------------------------- 
A--------------------------------------------------- 
E--------------------------------------------------- 

e-------------------------------17-16-----------17-- 
B--14-14-12-14--12-14--14/17-14-------17-17-14------ 
G--------------------------------------------------- 
D--------------------------------------------------- 
A--------------------------------------------------- 
E--------------------------------------------------- 

e---17+----19+-- 
B--------------- 
G-------18------ 
D--------------- 
A--------------- 
E--------------- 

Pre-Chorus x3 (insert the half bend in Fill 1 at the end here.) 

Intro x3 

Chorus x5 

Add this fill between the 3rd and 4th reps in the last chorus: 
e-------- 
B-------- 
G-------- 
D---7---- 
A---11^-- 
E-------- 

The End! 

Comments