Lit - Miserable Chords & Tabs

 

Miserable Chords & Tabs

Lit Chords & Tabs

Version: 4 Type: Tab 0 ratings
1 star 2 stars 3 stars 4 stars 5 stars
comments

Miserable Tab

Artist - Lit
Title - Miserable
Transcribed - by Brian S
Blinkx1115@aol.com


intro 4x :
----------------------------------------------
----------------------------------------------
--7-7~-/2-2-----------------------------------
--7-7~-/2-2-2-2-2-2-2-2-----------------------
--5-5~-/0-0-2-2-2-2-2-2-----------------------
------------0-0-0-0-0-0-----------------------

verse 3x :

--------------------------------------------
--------------------------------------------
--6--6--6--6--6--6--6--6--------------------
--6--6--6--6--6--6--6--6--7-7-7-7-7-7-7-7---
--4--4--4--4--4--4--4--4--7-7-7-7-7-7-7-7---
--------------------------5-5-5-5-5-5-5-5---


chorus :
	  Twice				   8x	
-------------------------------|---------|---|------
-------------------------------|---------|---|------
--7-7-7-7-9-9-9-9--------------|-7-7-7-7-|-9-|------
--7-7-7-7-9-9-9-9--6-6b(7)-6-4-|-7-7-7-7-|-9-|6-6b-6
--5-5-5-5-7-7-7-7--------------|-5-5-5-5-|-7-|------
-------------------------------|---------|---|------

verse : 2x

chorus : 2x
[ Tab from: http://www.guitartabs.cc/tabs/l/lit/miserable_tab_ver_4.html ]
2nd chorus 4x :			    let ring	 
-----------------------------------------------------------
-----------------------------------------------------------
-7-7-7-7--9-9-9-9-9-9-9-9-------------4--------------------
-7-7-7-7--9-9-9-9-9-9-9-9-------------4--------------------
-5/4-5/4--7-7-7-7-7-7-7-7-------------2--------------------
-----------------------------------------------------------
 yeh yeh....complete.............miserable

solo :
        v	   v	      v	    v          v  
----------12---17-16-12---17-16-/0---------------12--17-16-
-14-12-14---14----------14---------14-12-14-12-14--14------
-----------------------------------------------------------
-----------------------------------------------------------
-----------------------------------------------------------
----------------------------------------------------------- 
          
-12--17-16-18/19/20/21/21b---------------------------------
---14------------------------------------------------------
-----------------------------------------------------------
-----------------------------------------------------------
-----------------------------------------------------------
-----------------------------------------------------------

chorus 

intro 

2nd chorus
Comments