Lit - Miserable Chords & Tabs

 

Miserable Chords & Tabs

Lit Chords & Tabs

Version: 3 Type: Tab 1 rating
1 star 2 stars 3 stars 4 stars 5 stars
comments

Miserable Tab

this is Lit's song miserable. I hope its right because Im bored at
school and I'm doing it from memory.

and its in "down D tuning"

-----------------------------------------------------------------
-----------------------------------------------------------------
-----------------------------------------------------------------
-10--10-------5--5-------0--0-------2--2-----------------------
-10--10-------5--5-------0--0-------2--2-----------------------
-10--10-------5--5-------0--0-------2--2-----------------------  
                            you     make me    

-----------------------------------------------------------------
-----------------------------------------------------------------
-----------------------------------------------------------------
-10--10-------5--5-------0--0-------2--2-------------------------
-10--10-------5--5-------0--0-------2--2-------------------------
-10--10-------5--5-------0--0-------2--2-------------------------
 cum

yeah you probably get the jist of that bit.

then..........
[ Tab from: http://www.guitartabs.cc/tabs/l/lit/miserable_tab_ver_3.html ]
-----------------------------------------------------------------
--some funny chord then..----------------------------------------
-----------------------------------------------------------------
--------------------------2--------------------------------------
--------------------------2--------------------------------------
--------------------------2--------------------------------------
do that alot then.. I must stop saying then.

-----------------------------------------------------------------
-----------------------------------------------------------------
-----------------------------------------------------------------
-10--10---5--5---0--0----10--10---5--5---0--0--------------------
-10--10---5--5---0--0----10--10---5--5---0--0--------------------
-10--10---5--5---0--0----10--10---5--5---0--0--------------------

the chorus

-----------------------------------------------------------------
-----------------------------------------------------------------
-----------------------------------------------------------------
-10--10---5--5---0--0---2--2-----------------------------------------------
-10--10---5--5---0--0---2--2-------------------------------------------------
-10--10---5--5---0--0---2--2-------------------------------------------------
yeah thats pretty much it its a good song but I prefer the heavier
ones but you dont probably care.

you can E-Mail me at nigz_cake@hotmail.com 
Comments