Lit - Miserable Chords & Tabs

 

Miserable Chords & Tabs

Lit Chords & Tabs

Version: 11 Type: Tab 0 ratings
1 star 2 stars 3 stars 4 stars 5 stars
comments

Miserable Tab

   
Author/Artist: Lit
Title: Miserable
Tabber: Jimmy Cafarella



 Ok, I am not gonna start this tab out with the typical:  "be nice to me,
 it's my first tab", or " I saw these guys live and this is how its played", 
 or " everybody else is tone deaf and I am the best tabber alive",
 or " my mom and sister both got backstage and slept with the guitar player
 from this band, so I totally know this tab is right". Rather I will just 
 say that THIS IS HOW I PLAY IT. Sounds right to me. And I tab songs 
 as if there is only one guitar player 'cuz that's how I play it.


 Standard Tuning (I really wanted to tab this in drop D but it didn't make 
 any sense to do that.)
 

 INTRO slight distortion


                          "you make me com-..."     
-|---------------------------------------|------------------------------------
-|---------------------------------------|------------------------------------
-|---------------------------------------|------------------------------------
-|-12---12-/-7---7-/-2---2-----4-4---4-4-|------------------------------------
-|-12---12-/-7---7-/-2---2-2-2-4-4-4-4-4-|------------------------------------
-|-10---10-/-5---5-/-0---0-0-0-2---2-----|------------------------------------


                        
                                                                              
                          "you make me complete..."
-|-----------------------------------------|------------------------------------
-|-----------------------------------------|------------------------------------
-|-----------------------------------------|------------------------------------
-|-12---12-/-7---7-----2---2-----4-4---4-4-|------------------------------------
-|-12---12-/-7---7-----2---2-2-2-4-4-4-4-4-|------------------------------------
-|-10---10-/-5---5-0-0-0---0-0-0-2---2-----|------------------------------------


                   
                                                                              
                          "you make me completely..."
-|-------------------------------------------|----------------------------------
-|-------------------------------------------|----------------------------------
-|-----------------------------------------7-|----------------------------------
-|-12---12-/-7---7-----2---2-----4-4---4-4-7-|----------------------------------
-|-12---12-/-7---7-----2---2-2-2-4-4-4-4-4-5-|----------------------------------
-|-10---10-/-5---5-0-0-0---0-0-0-2---2-------|----------------------------------

 VERSE

                                                                              
            "stuck to a chair..."
-|-----------------------------------------------------------------|----------
-|-----------------------------------------------------------------|----------
-|-6---6---6---6---6---6---6---6-----------------------------------|----------
-|-6---6---6---6---6---6---6---6---4-4-4-4-4-4-4-4-4-4-4-4-4-4-4-4-|-x3-------
-|-4---4---4---4---4---4---4---4---4-4-4-4-4-4-4-4-4-4-4-4-4-4-4-4-|----------
-|-5---5---5---5---5---5---5---5---2-2-2-2-2-2-2-2-2-2-2-2-2-2-2-2-|----------


 BRIDGE
                                                                              

-|----------------------------|-----------------------------------------------
-|----------------------------|-----------------------------------------------
-|-7--7--7--7-----------------|-----------------------------------------------
-|-7--7--7--7---7--7---6b-r-6~|-x2--------------------------------------------
-|-5--5--5--5-0-7--7-0--------|-----------------------------------------------
-|-5--5--5--5-0-5--5-0--------|-----------------------------------------------
                                                                              

-|-----------------------------------------------------------|----------------
-|-----------------------------------------------------------|----------------
-|-7--7--7--7----------------6-6-6-6-6-6-6-6-6-6-6-6-6-------|----------------
-|-7--7--7--7---7--7--7--7---6-6-6-6-6-6-6-6-6-6-6-6-6-------|----------------
-|-5--5--5--5-0-7--7--7--7-0-4-4-4-4-4-4-4-4-4-4-4-4-4-------|----------------
-|-5--5--5--5-0-5--5--5--5-0-4-4-4-4-4-4-4-4-4-4-4-4-4-------|----------------


 VERSE AGAIN (not the video version of the song)


-|-----------------------------------------------------------------|----------
-|-----------------------------------------------------------------|----------
-|-6---6---6---6---6---6---6---6-----------------------------------|----------
-|-6---6---6---6---6---6---6---6---4-4-4-4-4-4-4-4-4-4-4-4-4-4-4-4-|-x2-------
-|-4---4---4---4---4---4---4---4---4-4-4-4-4-4-4-4-4-4-4-4-4-4-4-4-|----------
-|-5---5---5---5---5---5---5---5---2-2-2-2-2-2-2-2-2-2-2-2-2-2-2-2-|----------



 BRIDGE AGAIN


-|----------------------------|-----------------------------------------------
-|----------------------------|-----------------------------------------------
-|-7--7--7--7-----------------|-----------------------------------------------
-|-7--7--7--7---7--7---6b-r-6~|-x2--------------------------------------------
-|-5--5--5--5-0-7--7-0--------|-----------------------------------------------
-|-5--5--5--5-0-5--5-0--------|-----------------------------------------------
                                                                              

-|-----------------------------------------------------------|----------------
-|-----------------------------------------------------------|----------------
-|-7--7--7--7----------------6-6-6-6-6-6-6-6-6-6-6-6-6-6-6-6-|----------------
-|-7--7--7--7---7--7--7--7---6-6-6-6-6-6-6-6-6-6-6-6-6-6-6-6-|----------------
-|-5--5--5--5-0-7--7--7--7-0-4-4-4-4-4-4-4-4-4-4-4-4-4-4-4-4-|----------------
-|-5--5--5--5-0-5--5--5--5-0-4-4-4-4-4-4-4-4-4-4-4-4-4-4-4-4-|----------------



 CHORUS


                                                                              
      "yeah ..."
[ Tab from: http://www.guitartabs.cc/tabs/l/lit/miserable_tab_ver_11.html ]
   D        A        E        F#
-|-------------------------------------|--------------------------------------
-|-------------------------------------|--------------------------------------
-|-7--7-7-7----------------------------|--------------------------------------
-|-7--7-7-7-7--7-7-7-2--2-2-2-4--4-4-4-|-x2-----------------------------------
-|-5--5-5-5-7--7-7-7-2--2-2-2-4--4-4-4-|--------------------------------------
-|----------5--5-5-5-0--0-0-0-2--2-2-2-|--------------------------------------
                                                                              
   D        A        E        F#        D   B
-|--------------------------------------------|-------------------------------
-|--------------------------------------------|-------------------------------
-|-7--7-7-7-----------------------------7-----|-------------------------------
-|-7--7-7-7-7--7-7-7-2--2-2-2-4--4-4-4--7---9-|-------------------------------
-|-5--5-5-5-7--7-7-7-2--2-2-2-4--4-4-4--5---9-|-------------------------------
-|----------5--5-5-5-0--0-0-0-2--2-2-2------7-|-------------------------------



 LEAD INTERLUDE sounds like Chorus effect with speed cranked up
                                                                              

-|--------------------------------------------17--16--------------17--16\-|---
-|-14--14--12--14----------14-14-14\17-17--14---------17--17--14----------|---
-|------------------------------------------------------------------------|---
-|------------------------------------------------------------------------|---
-|------------------------------------------------------------------------|---
-|------------------------------------------------------------------------|---


                 
                                                                              
                          on final bend keep bending up while tremelo picking

-|---------------------------------------------17--16--------------17b----|---
-|-14--14--12--14---12--14--14-14-14\17-17--14---------17--17--14---------|---
-|------------------------------------------------------------------------|---
-|------------------------------------------------------------------------|---
-|------------------------------------------------------------------------|---
-|------------------------------------------------------------------------|---


 BRIDGE AGAIN


-|----------------------------|-----------------------------------------------
-|----------------------------|-----------------------------------------------
-|-7--7--7--7-----------------|-----------------------------------------------
-|-7--7--7--7---7--7---6b-r-6~|-x2--------------------------------------------
-|-5--5--5--5-0-7--7-0--------|-----------------------------------------------
-|-5--5--5--5-0-5--5-0--------|-----------------------------------------------
                                                                              

-|-----------------------------------------------------------|----------------
-|-----------------------------------------------------------|----------------
-|-7--7--7--7----------------6-6-6-6-6-6-6-6-6-6-6-6-6-6-6-6-|----------------
-|-7--7--7--7---7--7--7--7---6-6-6-6-6-6-6-6-6-6-6-6-6-6-6-6-|----------------
-|-5--5--5--5-0-7--7--7--7-0-4-4-4-4-4-4-4-4-4-4-4-4-4-4-4-4-|----------------
-|-5--5--5--5-0-5--5--5--5-0-4-4-4-4-4-4-4-4-4-4-4-4-4-4-4-4-|----------------



 INTRO AGAIN


-|---------------------------------------|------------------------------------
-|---------------------------------------|------------------------------------
-|---------------------------------------|------------------------------------
-|-12---12-/-7---7-/-2---2-----4-4---4-4-|------------------------------------
-|-12---12-/-7---7-/-2---2-2-2-4-4-4-4-4-|------------------------------------
-|-10---10-/-5---5-/-0---0-0-0-2---2-----|------------------------------------


                        
                                                                              
                          
-|-----------------------------------------|------------------------------------
-|-----------------------------------------|------------------------------------
-|-----------------------------------------|------------------------------------
-|-12---12-/-7---7-----2---2-----4-4---4-4-|------------------------------------
-|-12---12-/-7---7-0-0-2---2-2-2-4-4-4-4-4-|------------------------------------
-|-10---10-/-5---5-0-0-0---0-0-0-2---2-----|------------------------------------


                   
                                                                              
                          
-|-------------------------------------------|----------------------------------
-|-------------------------------------------|----------------------------------
-|-----------------------------------------7-|----------------------------------
-|-12---12-/-7---7-----2---2-----4-4---4-4-7-|----------------------------------
-|-12---12-/-7---7-0-0-2---2-2-2-4-4-4-4-4-5-|----------------------------------
-|-10---10-/-5---5-0-0-0---0-0-0-2---2-------|----------------------------------


                                                                              
      "yeah ..."
-|-------------------------------------|--------------------------------------
-|-------------------------------------|--------------------------------------
-|-7--7-7-7----------------------------|--------------------------------------
-|-7--7-7-7-7--7-7-7-2--2-2-2-4--4-4-4-|-x4----------------------------------
-|-5--5-5-5-7--7-7-7-2--2-2-2-4--4-4-4-|--------------------------------------
-|----------5--5-5-5-0--0-0-0-2--2-2-2-|--------------------------------------
                                                                              

-|--------------------------------------------|-------------------------------
-|--------------------------------------------|-------------------------------
-|-7--7-7-7-----------------------------7-----|-------------------------------
-|-7--7-7-7-7--7-7-7-2--2-2-2-4--4-4-4--7---9-|-------------------------------
-|-5--5-5-5-7--7-7-7-2--2-2-2-4--4-4-4--5---9-|-------------------------------
-|----------5--5-5-5-0--0-0-0-2--2-2-2------7-|-------------------------------


 EMAIL ME WITH ANY COMPLAINTS, SUGGESTIONS, BLAH BLAH BLAH,
 BUT NOT IF YOU ARE WRITING TO TELL ME THAT "IF YOU WANT TO SOUND 
 LIKE THE CD YOU HAVE TO TUNE DOWN A QUARTER OF A PITCH" OR WHATEVER,
 I AM IN STANDARD TUNING AND PLAYING ALONG JUST FINE. SO THERE!!!!
 IMMYJAY@COMCAST.NET  October 4,2003
Comments