Lit - Miserable Chords & Tabs

 

Miserable Chords & Tabs

Lit Chords & Tabs

Version: 10 Type: Tab 0 ratings
1 star 2 stars 3 stars 4 stars 5 stars
comments

Miserable Tab

song: Miserable (solo)
artist: Lit
tabbed by Greg Harrison
^ - Half Bend
+ - Whole Bend
~ - Tremolo

Solo (dist. w/auto wah):
e----------------------------17-16----------17-16/--|
B--14-14-12-14--14\17-17-14--------17-17-14---------|
G---------------------------------------------------|
D---------------------------------------------------|
A---------------------------------------------------|
E---------------------------------------------------|
[ Tab from: http://www.guitartabs.cc/tabs/l/lit/miserable_tab_ver_10.html ]
e-------------------------------17-16-----------17--|
B--14-14-12-14--12-14--14/17-14-------17-17-14------|
G---------------------------------------------------|
D---------------------------------------------------|
A---------------------------------------------------|
E---------------------------------------------------|

e---17+----19+--|
B---------------|
G-------18------|
D---------------|
A---------------|
E---------------|


The End!
Any comments to greg_7485@hotmail.com
Comments